  0
SECTION
  2
HEADER
  9
$ACADVER
  1
AC1009
  9
$INSBASE
 10
0.0
 20
0.0
 30
0.0
  9
$EXTMIN
 10
-575.04119558730315
 20
-869.20752730711945
 30
-0.0015258207003583
  9
$EXTMAX
 10
775.04120187373019
 20
1138.017960677714
 30
0.0000000349246037
  9
$LIMMIN
 10
0.0
 20
0.0
  9
$LIMMAX
 10
0.0
 20
0.0
  9
$ORTHOMODE
 70
     0
  9
$REGENMODE
 70
     1
  9
$FILLMODE
 70
     1
  9
$QTEXTMODE
 70
     0
  9
$MIRRTEXT
 70
     1
  9
$DRAGMODE
 70
     2
  9
$LTSCALE
 40
38.100000000000001
  9
$OSMODE
 70
   231
  9
$ATTMODE
 70
     1
  9
$TEXTSIZE
 40
0.0
  9
$TRACEWID
 40
1.0
  9
$TEXTSTYLE
  7
STANDARD
  9
$CLAYER
  8
DATA
  9
$CELTYPE
  6
BYLAYER
  9
$CECOLOR
 62
   256
  9
$DIMSCALE
 40
1.0
  9
$DIMASZ
 40
0.18
  9
$DIMEXO
 40
0.0625
  9
$DIMDLI
 40
0.38
  9
$DIMRND
 40
0.0
  9
$DIMDLE
 40
0.0
  9
$DIMEXE
 40
0.18
  9
$DIMTP
 40
0.0
  9
$DIMTM
 40
0.0
  9
$DIMTXT
 40
0.18
  9
$DIMCEN
 40
0.09
  9
$DIMTSZ
 40
0.0
  9
$DIMTOL
 70
     0
  9
$DIMLIM
 70
     0
  9
$DIMTIH
 70
     1
  9
$DIMTOH
 70
     1
  9
$DIMSE1
 70
     0
  9
$DIMSE2
 70
     0
  9
$DIMTAD
 70
     0
  9
$DIMZIN
 70
     0
  9
$DIMBLK
  1

  9
$DIMASO
 70
     1
  9
$DIMSHO
 70
     1
  9
$DIMPOST
  1

  9
$DIMAPOST
  1

  9
$DIMALT
 70
     0
  9
$DIMALTD
 70
     2
  9
$DIMALTF
 40
25.399999999999999
  9
$DIMLFAC
 40
1.0
  9
$DIMTOFL
 70
     0
  9
$DIMTVP
 40
0.0
  9
$DIMTIX
 70
     0
  9
$DIMSOXD
 70
     0
  9
$DIMSAH
 70
     0
  9
$DIMBLK1
  1

  9
$DIMBLK2
  1

  9
$DIMSTYLE
  2
STANDARD
  9
$DIMCLRD
 70
     0
  9
$DIMCLRE
 70
     0
  9
$DIMCLRT
 70
     0
  9
$DIMTFAC
 40
1.0
  9
$DIMGAP
 40
0.09
  9
$LUNITS
 70
     2
  9
$LUPREC
 70
     4
  9
$SKETCHINC
 40
0.1
  9
$FILLETRAD
 40
0.0
  9
$AUNITS
 70
     0
  9
$AUPREC
 70
     0
  9
$MENU
  1
acad
  9
$ELEVATION
 40
0.0
  9
$PELEVATION
 40
0.0
  9
$THICKNESS
 40
0.0
  9
$LIMCHECK
 70
     0
  9
$BLIPMODE
 70
     0
  9
$CHAMFERA
 40
0.0
  9
$CHAMFERB
 40
0.0
  9
$SKPOLY
 70
     0
  9
$TDCREATE
 40
2455762.7365393522
  9
$TDUPDATE
 40
2455762.7371708332
  9
$TDINDWG
 40
0.0002817593
  9
$TDUSRTIMER
 40
0.0002815856
  9
$USRTIMER
 70
     1
  9
$ANGBASE
 50
0.0
  9
$ANGDIR
 70
     0
  9
$PDMODE
 70
     1
  9
$PDSIZE
 40
-2.0
  9
$PLINEWID
 40
0.0
  9
$COORDS
 70
     1
  9
$SPLFRAME
 70
     0
  9
$SPLINETYPE
 70
     6
  9
$SPLINESEGS
 70
     8
  9
$ATTDIA
 70
     0
  9
$ATTREQ
 70
     1
  9
$HANDLING
 70
     1
  9
$HANDSEED
  5
64E
  9
$SURFTAB1
 70
     6
  9
$SURFTAB2
 70
     6
  9
$SURFTYPE
 70
     6
  9
$SURFU
 70
     6
  9
$SURFV
 70
     6
  9
$UCSNAME
  2

  9
$UCSORG
 10
0.0
 20
0.0
 30
0.0
  9
$UCSXDIR
 10
1.0
 20
0.0
 30
0.0
  9
$UCSYDIR
 10
0.0
 20
1.0
 30
0.0
  9
$PUCSNAME
  2

  9
$PUCSORG
 10
0.0
 20
0.0
 30
0.0
  9
$PUCSXDIR
 10
1.0
 20
0.0
 30
0.0
  9
$PUCSYDIR
 10
0.0
 20
1.0
 30
0.0
  9
$USERI1
 70
     0
  9
$USERI2
 70
     0
  9
$USERI3
 70
     0
  9
$USERI4
 70
     0
  9
$USERI5
 70
     0
  9
$USERR1
 40
0.0
  9
$USERR2
 40
0.0
  9
$USERR3
 40
0.0
  9
$USERR4
 40
0.0
  9
$USERR5
 40
0.0
  9
$WORLDVIEW
 70
     1
  9
$SHADEDGE
 70
     3
  9
$SHADEDIF
 70
    70
  9
$TILEMODE
 70
     1
  9
$MAXACTVP
 70
    64
  9
$PLIMCHECK
 70
     0
  9
$PEXTMIN
 10
1.0000000000000000E+020
 20
1.0000000000000000E+020
 30
1.0000000000000000E+020
  9
$PEXTMAX
 10
-1.0000000000000000E+020
 20
-1.0000000000000000E+020
 30
-1.0000000000000000E+020
  9
$PLIMMIN
 10
0.0
 20
0.0
  9
$PLIMMAX
 10
12.0
 20
9.0
  9
$UNITMODE
 70
     0
  9
$VISRETAIN
 70
     0
  9
$PLINEGEN
 70
     1
  9
$PSLTSCALE
 70
     0
  0
ENDSEC
  0
SECTION
  2
TABLES
  0
TABLE
  2
VPORT
 70
     1
  0
VPORT
  2
*ACTIVE
 70
     0
 10
0.0
 20
0.0
 11
1.0
 21
1.0
 12
100.00000314321341
 22
134.40521668529749
 13
0.0
 23
0.0
 14
1.0
 24
1.0
 15
0.0
 25
0.0
 16
0.0
 26
0.0
 36
1.0
 17
0.0
 27
0.0
 37
0.0
 40
2022.002608141778
 41
1.9619164619164611
 42
50.0
 43
0.0
 44
0.0
 50
0.0
 51
0.0
 71
     0
 72
  2000
 73
     1
 74
     1
 75
     0
 76
     0
 77
     0
 78
     0
  0
ENDTAB
  0
TABLE
  2
LTYPE
 70
    12
  0
LTYPE
  2
CONTINUOUS
 70
     0
  3
Solid line
 72
    65
 73
     0
 40
0.0
  0
LTYPE
  2
STYLE_01
 70
     0
  3

 72
    65
 73
     2
 40
0.3472222222222222
 49
0.1388888888888889
 49
-0.2083333333333334
  0
ENDTAB
  0
TABLE
  2
LAYER
 70
     5
  0
LAYER
  2
0
 70
     0
 62
     7
  6
CONTINUOUS
  0
LAYER
  2
DATA
 70
     0
 62
     7
  6
CONTINUOUS
  0
LAYER
  2
HIBINO-BASE
 70
     0
 62
     7
  6
CONTINUOUS
  0
LAYER
  2
SPEC
 70
     0
 62
     7
  6
CONTINUOUS
  0
LAYER
  2
DIMNSIONS
 70
     0
 62
     7
  6
CONTINUOUS
  0
ENDTAB
  0
TABLE
  2
STYLE
 70
     3
  0
STYLE
  2
STANDARD
 70
     0
 40
0.0
 41
1.0
 50
0.0
 71
     0
 42
0.0
  3
txt
  4
BIGFONT.SHX
  0
ENDTAB
  0
TABLE
  2
VIEW
 70
     0
  0
ENDTAB
  0
TABLE
  2
UCS
 70
     0
  0
ENDTAB
  0
TABLE
  2
APPID
 70
     4
  0
APPID
  2
ACAD
 70
     0
  0
APPID
  2
ACADANNOTATIVE
 70
     0
  0
APPID
  2
ACAD_NAV_VCDISPLAY
 70
     0
  0
APPID
  2
ACAD_MLEADERVER
 70
     0
  0
ENDTAB
  0
TABLE
  2
DIMSTYLE
 70
     2
  0
DIMSTYLE
  2
STANDARD
 70
     0
  3

  4

  5

  6

  7

 40
1.0
 41
0.18
 42
0.0625
 43
0.38
 44
0.18
 45
0.0
 46
0.0
 47
0.0
 48
0.0
140
0.18
141
0.09
142
0.0
143
25.399999999999999
144
1.0
145
0.0
146
1.0
147
0.09
 71
     0
 72
     0
 73
     1
 74
     1
 75
     0
 76
     0
 77
     0
 78
     0
170
     0
171
     2
172
     0
173
     0
174
     0
175
     0
176
     0
177
     0
178
     0
  0
ENDTAB
  0
ENDSEC
  0
SECTION
  2
BLOCKS
  0
BLOCK
  8
0
  2
$MODEL_SPACE
 70
     0
 10
0.0
 20
0.0
 30
0.0
  3
$MODEL_SPACE
  1

  0
ENDBLK
  5
5A5
  8
0
  0
BLOCK
 67
     1
  8
0
  2
$PAPER_SPACE
 70
     0
 10
0.0
 20
0.0
 30
0.0
  3
$PAPER_SPACE
  1

  0
ENDBLK
  5
5A1
 67
     1
  8
0
  0
ENDSEC
  0
SECTION
  2
ENTITIES
  0
LINE
  5
2D
  8
HIBINO-BASE
  6
CONTINUOUS
 62
     7
 10
-574.99999999999989
 20
1137.9568300000001
 30
0.0
 11
775.0
 21
1137.9568300000001
 31
0.0
  0
LINE
  5
2E
  8
HIBINO-BASE
  6
CONTINUOUS
 62
     7
 10
775.0
 20
-812.04316999999969
 30
0.0
 11
-574.99999999999989
 21
-812.04316999999969
 31
0.0
  0
LINE
  5
2F
  8
HIBINO-BASE
  6
CONTINUOUS
 62
     7
 10
-574.99999999999989
 20
-812.04316999999969
 30
0.0
 11
-574.99999999999989
 21
1137.9568300000001
 31
0.0
  0
TEXT
  5
30
  8
HIBINO-BASE
 62
     7
 10
-521.11999999999978
 20
-860.10825779999971
 30
0.0
 40
27.000335195312491
  1
Hibino Corporation
 41
0.7
 11
-521.11999999999978
 21
-833.10792260468736
 31
0.0
 73
     3
  0
LINE
  5
31
  8
HIBINO-BASE
  6
CONTINUOUS
 62
     7
 10
775.0
 20
1137.9568300000001
 30
0.0
 11
775.0
 21
-812.04316999999969
 31
0.0
  0
LINE
  5
32
  8
HIBINO-BASE
  6
CONTINUOUS
 62
     7
 10
100.0
 20
-643.2931699999998
 30
0.0
 11
775.0
 21
-643.2931699999998
 31
0.0
  0
LINE
  5
33
  8
HIBINO-BASE
  6
CONTINUOUS
 62
     7
 10
100.0
 20
-812.04316999999969
 30
0.0
 11
100.0
 21
-643.2931699999998
 31
0.0
  0
TEXT
  5
34
  8
HIBINO-BASE
 62
     7
 10
106.75
 20
-663.54319399999974
 30
0.0
 40
13.500194531249999
  1
NOTE
 41
0.7
 11
106.75
 21
-650.04299946874983
 31
0.0
 73
     3
  0
LINE
  5
35
  8
HIBINO-BASE
  6
CONTINUOUS
 62
     7
 10
362.5
 20
-812.04316999999969
 30
0.0
 11
362.5
 21
-643.2931699999998
 31
0.0
  0
TEXT
  5
36
  8
HIBINO-BASE
 62
     7
 10
369.25
 20
-663.54319399999974
 30
0.0
 40
13.500194531249999
  1
TITLE
 41
0.7
 11
369.25
 21
-650.04299946874983
 31
0.0
 73
     3
  0
TEXT
  5
37
  8
HIBINO-BASE
 62
     7
 10
475.51292999999998
 20
-860.10825779999971
 30
0.0
 40
27.000335195312491
  1
ヒビノ株式会社
 41
0.7
 11
475.51292999999998
 21
-833.10792260468736
 31
0.0
 73
     3
  0
LINE
  5
38
  8
HIBINO-BASE
  6
CONTINUOUS
 62
     7
 10
100.0
 20
-737.0431699999998
 30
0.0
 11
775.0
 21
-737.0431699999998
 31
0.0
  0
TEXT
  5
39
  8
HIBINO-BASE
 62
     7
 10
463.0
 20
-756.87079400000016
 30
0.0
 40
13.500194531249999
  1
DRAWN
 41
0.7
 11
463.0
 21
-743.37059946875013
 31
0.0
 73
     3
  0
TEXT
  5
3A
  8
HIBINO-BASE
 62
     7
 10
275.49999999999989
 20
-756.87079400000016
 30
0.0
 40
13.500194531249999
  1
DATE
 41
0.7
 11
275.49999999999989
 21
-743.37059946875013
 31
0.0
 73
     3
  0
TEXT
  5
3B
  8
HIBINO-BASE
 62
     7
 10
108.25
 20
-756.6890957999999
 30
0.0
 40
12.216331679687499
  1
図面サイズ
 41
0.7
 11
108.25
 21
-744.47276412031226
 31
0.0
 73
     3
  0
TEXT
  5
3C
  8
HIBINO-BASE
 62
     7
 10
200.5
 20
-756.87079400000016
 30
0.0
 40
13.500194531249999
  1
SCALE
 41
0.7
 11
200.5
 21
-743.37059946875013
 31
0.0
 73
     3
  0
TEXT
  5
3D
  8
HIBINO-BASE
 62
     7
 10
369.25
 20
-756.87079400000016
 30
0.0
 40
13.500194531249999
  1
DESIGN
 41
0.7
 11
369.25
 21
-743.37059946875013
 31
0.0
 73
     3
  0
TEXT
  5
3E
  8
HIBINO-BASE
 62
     7
 10
650.49999999999989
 20
-756.87079400000016
 30
0.0
 40
13.500194531249999
  1
DRAWING NO.
 41
0.7
 11
650.49999999999989
 21
-743.37059946875013
 31
0.0
 73
     3
  0
TEXT
  5
3F
  8
HIBINO-BASE
 62
     7
 10
556.74999999999989
 20
-756.87079400000016
 30
0.0
 40
13.500194531249999
  1
CHECK
 41
0.7
 11
556.74999999999989
 21
-743.37059946875013
 31
0.0
 73
     3
  0
LINE
  5
40
  8
HIBINO-BASE
  6
CONTINUOUS
 62
     7
 10
207.8125
 20
-802.66816999999969
 30
0.0
 11
235.9375
 21
-774.5431699999998
 31
0.0
  0
TEXT
  5
41
  8
HIBINO-BASE
 62
     7
 10
203.125
 20
-787.41106899999966
 30
0.0
 40
16.288398632812498
  1
1
 41
0.7
 11
203.125
 21
-771.12267036718731
 31
0.0
 73
     3
  0
LINE
  5
42
  8
HIBINO-BASE
  6
CONTINUOUS
 62
     7
 10
193.75
 20
-812.04316999999969
 30
0.0
 11
193.75
 21
-737.0431699999998
 31
0.0
  0
LINE
  5
43
  8
HIBINO-BASE
  6
CONTINUOUS
 62
     7
 10
268.75
 20
-812.04316999999969
 30
0.0
 11
268.75
 21
-737.0431699999998
 31
0.0
  0
LINE
  5
44
  8
HIBINO-BASE
  6
CONTINUOUS
 62
     7
 10
456.25
 20
-737.0431699999998
 30
0.0
 11
456.25
 21
-812.04316999999969
 31
0.0
  0
LINE
  5
45
  8
HIBINO-BASE
  6
CONTINUOUS
 62
     7
 10
643.75
 20
-737.0431699999998
 30
0.0
 11
643.75
 21
-812.04316999999969
 31
0.0
  0
LINE
  5
46
  8
HIBINO-BASE
  6
CONTINUOUS
 62
     7
 10
549.99999999999989
 20
-812.04316999999969
 30
0.0
 11
549.99999999999989
 21
-737.0431699999998
 31
0.0
  0
TEXT
  5
47
  8
HIBINO-BASE
 62
     7
 10
129.33167999999989
 20
-793.30475280000007
 30
0.0
 40
24.432601796875002
  1
A4
 41
0.7
 11
129.33167999999989
 21
-768.87215100312505
 31
0.0
 73
     3
  0
TEXT
  5
48
  8
HIBINO-BASE
 62
     7
 10
275.17405000000002
 20
-792.00064399999985
 30
0.0
 40
13.500194531249999
  1
'02.05.
 41
0.7
 11
275.17405000000002
 21
-778.50044946874982
 31
0.0
 73
     3
  0
TEXT
  5
49
  8
HIBINO-BASE
 62
     7
 10
231.25
 20
-801.47356899999977
 30
0.0
 40
16.288398632812498
  1
7.5
 41
0.7
 11
231.25
 21
-785.18517036718731
 31
0.0
 73
     3
  0
TEXT
  5
4A
  8
HIBINO-BASE
 62
     7
 10
467.54357508275967
 20
-792.00064400000019
 30
0.0
 40
13.500194531249999
  1
N.Sasaki
 41
0.7
 11
467.54357508275967
 21
-778.50044946875005
 31
0.0
 73
     3
  0
LINE
  5
4B
  8
SPEC
  6
CONTINUOUS
 62
     7
 10
-518.79999999999995
 20
1063.0
 30
0.0
 11
587.45000000000016
 21
1063.0
 31
0.0
  0
LINE
  5
4C
  8
SPEC
  6
CONTINUOUS
 62
     7
 10
-518.75
 20
1034.8318300000001
 30
0.0
 11
587.45000000000016
 21
1034.8318300000001
 31
0.0
  0
LINE
  5
4D
  8
SPEC
  6
CONTINUOUS
 62
     7
 10
-518.79999999999995
 20
922.375
 30
0.0
 11
587.4000000000002
 21
922.375
 31
0.0
  0
LINE
  5
4E
  8
SPEC
  6
CONTINUOUS
 62
     7
 10
-518.79999999999995
 20
866.125
 30
0.0
 11
587.4000000000002
 21
866.125
 31
0.0
  0
LINE
  5
4F
  8
SPEC
  6
CONTINUOUS
 62
     7
 10
-518.79999999999995
 20
894.25
 30
0.0
 11
587.4000000000002
 21
894.25
 31
0.0
  0
LINE
  5
50
  8
SPEC
  6
CONTINUOUS
 62
     7
 10
-518.79999999999995
 20
838.0
 30
0.0
 11
587.4000000000002
 21
838.0
 31
0.0
  0
LINE
  5
51
  8
SPEC
  6
CONTINUOUS
 62
     7
 10
-518.79999999999995
 20
809.875
 30
0.0
 11
587.4000000000002
 21
809.875
 31
0.0
  0
LINE
  5
52
  8
SPEC
  6
CONTINUOUS
 62
     7
 10
-518.79999999999995
 20
697.37499999999989
 30
0.0
 11
587.4000000000002
 21
697.37499999999989
 31
0.0
  0
LINE
  5
53
  8
SPEC
  6
CONTINUOUS
 62
     7
 10
-518.75
 20
1062.9568300000001
 30
0.0
 11
-518.75
 21
472.37499999999989
 31
0.0
  0
TEXT
  5
54
  8
SPEC
 62
     7
 10
-509.375
 20
1073.406359999999
 30
0.0
 40
18.324462890625
  1
仕様
 41
0.7
 11
-509.375
 21
1091.7308228906249
 31
0.0
 73
     3
  0
TEXT
  5
55
  8
SPEC
 62
     7
 10
-512.04999999999995
 20
675.15941199999997
 30
0.0
 40
14.252334375
  1
入力コネクタ 
 41
0.7
 11
-512.04999999999995
 21
689.41174637499989
 31
0.0
 73
     3
  0
TEXT
  5
56
  8
SPEC
 62
     7
 10
-512.04999999999995
 20
787.65941199999997
 30
0.0
 40
14.252334375
  1
ダンピングファクタ 
 41
0.7
 11
-512.04999999999995
 21
801.91174637499989
 31
0.0
 73
     3
  0
TEXT
  5
57
  8
SPEC
 62
     7
 10
-512.04999999999995
 20
900.15941199999997
 30
0.0
 40
14.252334375
  1
周波数特性
 41
0.7
 11
-512.04999999999995
 21
914.41174637499989
 31
0.0
 73
     3
  0
TEXT
  5
58
  8
SPEC
 62
     7
 10
-512.04999999999995
 20
872.03441199999997
 30
0.0
 40
14.252334375
  1
SN比
 41
0.7
 11
-512.04999999999995
 21
886.28674637499989
 31
0.0
 73
     3
  0
TEXT
  5
59
  8
SPEC
 62
     7
 10
-512.0
 20
1012.6162420000001
 30
0.0
 40
14.252334375
  1
出力
 41
0.7
 11
-512.0
 21
1026.868576375
 31
0.0
 73
     3
  0
TEXT
  5
5A
  8
SPEC
 62
     7
 10
-512.04999999999995
 20
843.90941199999997
 30
0.0
 40
14.252334375
  1
THD
 41
0.7
 11
-512.04999999999995
 21
858.16174637499989
 31
0.0
 73
     3
  0
TEXT
  5
5B
  8
SPEC
 62
     7
 10
-512.04999999999995
 20
815.78441199999997
 30
0.0
 40
14.252334375
  1
IMD
 41
0.7
 11
-512.04999999999995
 21
830.03674637499989
 31
0.0
 73
     3
  0
TEXT
  5
5C
  8
SPEC
 62
     7
 10
-512.0
 20
989.61624199999994
 30
0.0
 40
14.252334375
  1
(1kHz,THD 0.1%%%)
 41
0.7
 11
-512.0
 21
1003.868576375
 31
0.0
 73
     3
  0
LINE
  5
5D
  8
SPEC
  6
CONTINUOUS
 62
     7
 10
-518.79999999999995
 20
781.74999999999989
 30
0.0
 11
587.4000000000002
 21
781.74999999999989
 31
0.0
  0
TEXT
  5
5E
  8
SPEC
 62
     7
 10
-512.04999999999995
 20
759.53441199999997
 30
0.0
 40
14.252334375
  1
入力インピーダンス
 41
0.7
 11
-512.04999999999995
 21
773.78674637500001
 31
0.0
 73
     3
  0
LINE
  5
5F
  8
SPEC
  6
CONTINUOUS
 62
     7
 10
-518.79999999999995
 20
725.49999999999989
 30
0.0
 11
587.4000000000002
 21
725.49999999999989
 31
0.0
  0
TEXT
  5
60
  8
SPEC
 62
     7
 10
-512.04999999999995
 20
703.28441199999997
 30
0.0
 40
14.252334375
  1
入力感度
 41
0.7
 11
-512.04999999999995
 21
717.53674637499989
 31
0.0
 73
     3
  0
LINE
  5
61
  8
SPEC
  6
CONTINUOUS
 62
     7
 10
-518.79999999999995
 20
641.12499999999989
 30
0.0
 11
587.4000000000002
 21
641.12499999999989
 31
0.0
  0
TEXT
  5
62
  8
SPEC
 62
     7
 10
-512.04999999999995
 20
618.90941199999986
 30
0.0
 40
14.252334375
  1
出力コネクタ 
 41
0.7
 11
-512.04999999999995
 21
633.16174637499978
 31
0.0
 73
     3
  0
LINE
  5
63
  8
SPEC
  6
CONTINUOUS
 62
     7
 10
587.45000000000016
 20
1063.0
 30
0.0
 11
587.45000000000016
 21
472.37499999999989
 31
0.0
  0
LINE
  5
64
  8
SPEC
  6
CONTINUOUS
 62
     7
 10
-518.79999999999995
 20
500.49999999999989
 30
0.0
 11
587.4000000000002
 21
500.49999999999989
 31
0.0
  0
LINE
  5
65
  8
SPEC
  6
CONTINUOUS
 62
     7
 10
-518.79999999999995
 20
528.62499999999989
 30
0.0
 11
587.4000000000002
 21
528.62499999999989
 31
0.0
  0
TEXT
  5
66
  8
SPEC
 62
     7
 10
-512.04999999999995
 20
534.53441199999986
 30
0.0
 40
14.252334375
  1
寸法
 41
0.7
 11
-512.04999999999995
 21
548.78674637499978
 31
0.0
 73
     3
  0
TEXT
  5
67
  8
SPEC
 62
     7
 10
-512.04999999999995
 20
506.40941199999997
 30
0.0
 40
14.252334375
  1
重量
 41
0.7
 11
-512.04999999999995
 21
520.66174637499989
 31
0.0
 73
     3
  0
LINE
  5
68
  8
SPEC
  6
CONTINUOUS
 62
     7
 10
-518.79999999999995
 20
584.87499999999989
 30
0.0
 11
587.4000000000002
 21
584.87499999999989
 31
0.0
  0
TEXT
  5
69
  8
SPEC
 62
     7
 10
-512.04999999999995
 20
562.65941199999986
 30
0.0
 40
14.252334375
  1
電源/消費電力
 41
0.7
 11
-512.04999999999995
 21
576.91174637499978
 31
0.0
 73
     3
  0
LINE
  5
6A
  8
SPEC
  6
CONTINUOUS
 62
     7
 10
-518.79999999999995
 20
556.74999999999989
 30
0.0
 11
587.4000000000002
 21
556.74999999999989
 31
0.0
  0
LINE
  5
6B
  8
SPEC
  6
CONTINUOUS
 62
     7
 10
-518.79999999999995
 20
472.37499999999989
 30
0.0
 11
587.45000000000016
 21
472.37499999999989
 31
0.0
  0
TEXT
  5
6C
  8
SPEC
 62
     7
 10
-512.04999999999995
 20
478.28441199999997
 30
0.0
 40
14.252334375
  1
付属品
 41
0.7
 11
-512.04999999999995
 21
492.53674637499989
 31
0.0
 73
     3
  0
TEXT
  5
6D
  8
SPEC
 62
     7
 10
-268.27839999999981
 20
1040.7412420000001
 30
0.0
 40
14.252334375
  1
CE2000TX
 41
0.7
 11
-268.27839999999981
 21
1054.993576375
 31
0.0
 73
     3
  0
LINE
  5
6E
  8
SPEC
  6
CONTINUOUS
 62
     7
 10
-275.02839999999981
 20
1062.9568300000001
 30
0.0
 11
-275.02839999999981
 21
472.37499999999989
 31
0.0
  0
TEXT
  5
6F
  8
SPEC
 62
     7
 10
-268.32839999999982
 20
815.78441199999997
 30
0.0
 40
14.252334375
  1
0.1%%%以下
 41
0.7
 11
-268.32839999999982
 21
830.03674637499989
 31
0.0
 73
     3
  0
TEXT
  5
70
  8
SPEC
 62
     7
 10
-268.32839999999982
 20
843.90941199999997
 30
0.0
 40
14.252334375
  1
0.5%%%以下(20Hz～20kHz)
 41
0.7
 11
-268.32839999999982
 21
858.16174637499989
 31
0.0
 73
     3
  0
TEXT
  5
71
  8
SPEC
 62
     7
 10
-268.32839999999982
 20
900.15941199999997
 30
0.0
 40
14.252334375
  1
+/-0.1dB(20Hz～20kHz,1W)
 41
0.7
 11
-268.32839999999982
 21
914.41174637499989
 31
0.0
 73
     3
  0
TEXT
  5
72
  8
SPEC
 62
     7
 10
-268.32839999999982
 20
872.03441199999997
 30
0.0
 40
14.252334375
  1
105dB以上(Aウエイト)
 41
0.7
 11
-268.32839999999982
 21
886.28674637499989
 31
0.0
 73
     3
  0
TEXT
  5
73
  8
SPEC
 62
     7
 10
-268.32839999999982
 20
787.65941199999997
 30
0.0
 40
14.252334375
  1
400以上(10Hz～400Hz)
 41
0.7
 11
-268.32839999999982
 21
801.91174637499989
 31
0.0
 73
     3
  0
TEXT
  5
74
  8
SPEC
 62
     7
 10
-268.27839999999981
 20
1012.6162420000001
 30
0.0
 40
14.252334375
  1
ステレオ　　：660+660W(4\U+03A9)
 41
0.7
 11
-268.27839999999981
 21
1026.868576375
 31
0.0
 73
     3
  0
TEXT
  5
75
  8
SPEC
 62
     7
 10
-268.32839999999982
 20
759.53441199999997
 30
0.0
 40
14.252334375
  1
20k\U+03A9(バランス)
 41
0.7
 11
-268.32839999999982
 21
773.78674637500001
 31
0.0
 73
     3
  0
TEXT
  5
76
  8
SPEC
 62
     7
 10
-268.32839999999982
 20
703.28441199999997
 30
0.0
 40
14.252334375
  1
1.4V/26dB電圧ゲイン
 41
0.7
 11
-268.32839999999982
 21
717.53674637499989
 31
0.0
 73
     3
  0
TEXT
  5
77
  8
SPEC
 62
     7
 10
-268.32839999999982
 20
736.53441199999986
 30
0.0
 40
14.252334375
  1
10k\U+03A9(アンバランス)
 41
0.7
 11
-268.32839999999982
 21
750.78674637500001
 31
0.0
 73
     3
  0
TEXT
  5
78
  8
SPEC
 62
     7
 10
-268.32839999999982
 20
618.90941199999986
 30
0.0
 40
14.252334375
  1
ノイトリック製 4Pスピコン(NL4MP),
 41
0.7
 11
-268.32839999999982
 21
633.16174637499978
 31
0.0
 73
     3
  0
TEXT
  5
79
  8
SPEC
 62
     7
 10
-268.32839999999982
 20
675.15941199999997
 30
0.0
 40
14.252334375
  1
XLR-3-31相当(バランス,2-HOT),フォーンジャック,
 41
0.7
 11
-268.32839999999982
 21
689.41174637499989
 31
0.0
 73
     3
  0
TEXT
  5
7A
  8
SPEC
 62
     7
 10
-268.32839999999982
 20
652.15941199999975
 30
0.0
 40
14.252334375
  1
バリアブロック(バランス)
 41
0.7
 11
-268.32839999999982
 21
666.41174637499989
 31
0.0
 73
     3
  0
TEXT
  5
7B
  8
SPEC
 62
     7
 10
-268.32839999999982
 20
534.53441199999986
 30
0.0
 40
14.252334375
  1
483.5(W)\U+00D7133(H)\U+00D7311(D)mm
 41
0.7
 11
-268.32839999999982
 21
548.78674637499978
 31
0.0
 73
     3
  0
TEXT
  5
7C
  8
SPEC
 62
     7
 10
-268.32839999999982
 20
506.40941199999997
 30
0.0
 40
14.252334375
  1
約20kg
 41
0.7
 11
-268.32839999999982
 21
520.66174637499989
 31
0.0
 73
     3
  0
TEXT
  5
7D
  8
SPEC
 62
     7
 10
-268.32839999999982
 20
562.65941199999986
 30
0.0
 40
14.252334375
  1
AC100V,50/60Hz,11.4A
 41
0.7
 11
-268.32839999999982
 21
576.91174637499978
 31
0.0
 73
     3
  0
TEXT
  5
7E
  8
SPEC
 62
     7
 10
-268.32839999999982
 20
478.28441199999997
 30
0.0
 40
14.252334375
  1
電源ケーブル　1本
 41
0.7
 11
-268.32839999999982
 21
492.53674637499989
 31
0.0
 73
     3
  0
TEXT
  5
7F
  8
SPEC
 62
     7
 10
-268.32839999999982
 20
595.90941199999975
 30
0.0
 40
14.252334375
  1
バリアブロック
 41
0.7
 11
-268.32839999999982
 21
610.16174637499989
 31
0.0
 73
     3
  0
TEXT
  5
80
  8
SPEC
 62
     7
 10
-268.27839999999981
 20
989.63251200000002
 30
0.0
 40
14.252334375
  1
　　　　　　：400+400W(8\U+03A9)
 41
0.7
 11
-268.27839999999981
 21
1003.8848463750001
 31
0.0
 73
     3
  0
TEXT
  5
81
  8
SPEC
 62
     7
 10
-268.27839999999981
 20
966.63251199999991
 30
0.0
 40
14.252334375
  1
ブリッジモノ：1950W(4\U+03A9)
 41
0.7
 11
-268.27839999999981
 21
980.88484637500005
 31
0.0
 73
     3
  0
TEXT
  5
82
  8
SPEC
 62
     7
 10
-268.27839999999981
 20
943.63251200000013
 30
0.0
 40
14.252334375
  1
　　　　　　：1320W(8\U+03A9)
 41
0.7
 11
-268.27839999999981
 21
957.88484637500005
 31
0.0
 73
     3
  0
TEXT
  5
83
  8
DIMNSIONS
 62
     7
 10
-50.000000000000021
 20
-720.02199999999982
 30
0.0
 40
18.324462890625
  1
(単位：mm)
 41
0.7
 11
-50.000000000000021
 21
-701.69753710937482
 31
0.0
 73
     3
  0
LINE
  5
84
  8
DIMNSIONS
  6
CONTINUOUS
 62
     7
 10
-377.5
 20
17.999999999999972
 30
0.0
 11
-377.5
 21
165.0
 31
0.0
  0
LINE
  5
85
  8
DIMNSIONS
  6
CONTINUOUS
 62
     7
 10
61.0
 20
17.999999999999972
 30
0.0
 11
61.0
 21
165.0
 31
0.0
  0
LINE
  5
86
  8
DIMNSIONS
  6
CONTINUOUS
 62
     7
 10
-377.5
 20
150.0
 30
0.0
 11
61.0
 21
150.0
 31
0.0
  0
LINE
  5
87
  8
DIMNSIONS
  6
CONTINUOUS
 62
     7
 10
-377.5
 20
150.0
 30
0.0
 11
-358.74533081054687
 21
155.0252984636268
 31
0.0
  0
LINE
  5
88
  8
DIMNSIONS
  6
CONTINUOUS
 62
     7
 10
-377.5
 20
150.0
 30
0.0
 11
-358.74533081054687
 21
144.97470153637309
 31
0.0
  0
LINE
  5
89
  8
DIMNSIONS
  6
CONTINUOUS
 62
     7
 10
61.0
 20
150.0
 30
0.0
 11
42.245330810546882
 21
144.97470153637309
 31
0.0
  0
LINE
  5
8A
  8
DIMNSIONS
  6
CONTINUOUS
 62
     7
 10
61.0
 20
150.0
 30
0.0
 11
42.245330810546882
 21
155.0252984636268
 31
0.0
  0
TEXT
  5
8B
  8
DIMNSIONS
 62
     7
 10
-191.32291666666671
 20
157.45416666666671
 30
0.0
 40
20.360514322916671
  1
438.5
 41
0.7
 11
-191.32291666666671
 21
177.81468098958331
 31
0.0
 73
     3
  0
LINE
  5
8C
  8
DIMNSIONS
  6
CONTINUOUS
 62
     7
 10
-375.0
 20
75.999999999999972
 30
0.0
 11
-375.0
 21
115.0
 31
0.0
  0
LINE
  5
8D
  8
DIMNSIONS
  6
CONTINUOUS
 62
     7
 10
58.5
 20
75.999999999999972
 30
0.0
 11
58.5
 21
115.0
 31
0.0
  0
LINE
  5
8E
  8
DIMNSIONS
  6
CONTINUOUS
 62
     7
 10
-375.0
 20
100.0
 30
0.0
 11
58.5
 21
100.0
 31
0.0
  0
LINE
  5
8F
  8
DIMNSIONS
  6
CONTINUOUS
 62
     7
 10
-375.0
 20
100.0
 30
0.0
 11
-356.24533081054687
 21
105.0252984636268
 31
0.0
  0
LINE
  5
90
  8
DIMNSIONS
  6
CONTINUOUS
 62
     7
 10
-375.0
 20
100.0
 30
0.0
 11
-356.24533081054687
 21
94.974701536373161
 31
0.0
  0
LINE
  5
91
  8
DIMNSIONS
  6
CONTINUOUS
 62
     7
 10
58.5
 20
100.0
 30
0.0
 11
39.745330810546882
 21
94.974701536373161
 31
0.0
  0
LINE
  5
92
  8
DIMNSIONS
  6
CONTINUOUS
 62
     7
 10
58.5
 20
100.0
 30
0.0
 11
39.745330810546882
 21
105.0252984636268
 31
0.0
  0
TEXT
  5
93
  8
DIMNSIONS
 62
     7
 10
-191.32291666666671
 20
107.45416666666659
 30
0.0
 40
20.360514322916671
  1
433.5
 41
0.7
 11
-191.32291666666671
 21
127.81468098958329
 31
0.0
 73
     3
  0
LINE
  5
94
  8
DIMNSIONS
  6
CONTINUOUS
 62
     7
 10
-400.0
 20
-514.99999999999977
 30
0.0
 11
-400.0
 21
-614.99999999999977
 31
0.0
  0
LINE
  5
95
  8
DIMNSIONS
  6
CONTINUOUS
 62
     7
 10
83.499999999999986
 20
-514.99999999999977
 30
0.0
 11
83.499999999999986
 21
-614.99999999999977
 31
0.0
  0
LINE
  5
96
  8
DIMNSIONS
  6
CONTINUOUS
 62
     7
 10
-400.0
 20
-599.99999999999989
 30
0.0
 11
83.499999999999986
 21
-599.99999999999989
 31
0.0
  0
LINE
  5
97
  8
DIMNSIONS
  6
CONTINUOUS
 62
     7
 10
-400.0
 20
-599.99999999999989
 30
0.0
 11
-381.24533081054687
 21
-594.97470153637312
 31
0.0
  0
LINE
  5
98
  8
DIMNSIONS
  6
CONTINUOUS
 62
     7
 10
-400.0
 20
-599.99999999999989
 30
0.0
 11
-381.24533081054687
 21
-605.02529846362665
 31
0.0
  0
LINE
  5
99
  8
DIMNSIONS
  6
CONTINUOUS
 62
     7
 10
83.499999999999986
 20
-599.99999999999989
 30
0.0
 11
64.745330810546861
 21
-605.02529846362677
 31
0.0
  0
LINE
  5
9A
  8
DIMNSIONS
  6
CONTINUOUS
 62
     7
 10
83.499999999999986
 20
-599.99999999999989
 30
0.0
 11
64.745330810546861
 21
-594.97470153637312
 31
0.0
  0
TEXT
  5
9B
  8
DIMNSIONS
 62
     7
 10
-191.32291666666671
 20
-592.54583333333312
 30
0.0
 40
20.360514322916671
  1
483.5
 41
0.7
 11
-191.32291666666671
 21
-572.18531901041638
 31
0.0
 73
     3
  0
LINE
  5
9C
  8
DIMNSIONS
  6
CONTINUOUS
 62
     7
 10
-415.0
 20
-499.99999999999989
 30
0.0
 11
-515.0
 21
-499.99999999999989
 31
0.0
  0
LINE
  5
9D
  8
DIMNSIONS
  6
CONTINUOUS
 62
     7
 10
-415.0
 20
-367.0
 30
0.0
 11
-515.0
 21
-367.0
 31
0.0
  0
LINE
  5
9E
  8
DIMNSIONS
  6
CONTINUOUS
 62
     7
 10
-500.0
 20
-499.99999999999989
 30
0.0
 11
-500.0
 21
-367.0
 31
0.0
  0
LINE
  5
9F
  8
DIMNSIONS
  6
CONTINUOUS
 62
     7
 10
-500.0
 20
-499.99999999999989
 30
0.0
 11
-505.02529846362683
 21
-481.2453308105467
 31
0.0
  0
LINE
  5
A0
  8
DIMNSIONS
  6
CONTINUOUS
 62
     7
 10
-500.0
 20
-499.99999999999989
 30
0.0
 11
-494.97470153637317
 21
-481.2453308105467
 31
0.0
  0
LINE
  5
A1
  8
DIMNSIONS
  6
CONTINUOUS
 62
     7
 10
-500.0
 20
-367.0
 30
0.0
 11
-494.97470153637317
 21
-385.75466918945312
 31
0.0
  0
LINE
  5
A2
  8
DIMNSIONS
  6
CONTINUOUS
 62
     7
 10
-500.0
 20
-367.0
 30
0.0
 11
-505.02529846362683
 21
-385.75466918945312
 31
0.0
  0
TEXT
  5
A3
  8
DIMNSIONS
 62
     7
 10
-507.45416666666648
 20
-453.34374999999989
 30
0.0
 40
20.360514322916671
  1
133
 50
90.0
 41
0.7
 11
-527.81468098958317
 21
-453.34374999999989
 31
0.0
 73
     3
  0
LINE
  5
A4
  8
DIMNSIONS
  6
CONTINUOUS
 62
     7
 10
-407.24999999999989
 20
-404.9249999999999
 30
0.0
 11
-465.0
 21
-404.9249999999999
 31
0.0
  0
LINE
  5
A5
  8
DIMNSIONS
  6
CONTINUOUS
 62
     7
 10
-407.24999999999989
 20
-462.07499999999987
 30
0.0
 11
-465.0
 21
-462.07499999999987
 31
0.0
  0
LINE
  5
A6
  8
DIMNSIONS
  6
CONTINUOUS
 62
     7
 10
-450.0
 20
-404.9249999999999
 30
0.0
 11
-450.0
 21
-462.07499999999987
 31
0.0
  0
LINE
  5
A7
  8
DIMNSIONS
  6
CONTINUOUS
 62
     7
 10
-450.0
 20
-404.9249999999999
 30
0.0
 11
-444.97470153637317
 21
-423.67966918945302
 31
0.0
  0
LINE
  5
A8
  8
DIMNSIONS
  6
CONTINUOUS
 62
     7
 10
-450.0
 20
-404.9249999999999
 30
0.0
 11
-455.02529846362683
 21
-423.67966918945302
 31
0.0
  0
LINE
  5
A9
  8
DIMNSIONS
  6
CONTINUOUS
 62
     7
 10
-450.0
 20
-462.07499999999987
 30
0.0
 11
-455.02529846362683
 21
-443.32033081054681
 31
0.0
  0
LINE
  5
AA
  8
DIMNSIONS
  6
CONTINUOUS
 62
     7
 10
-450.0
 20
-462.07499999999987
 30
0.0
 11
-444.97470153637317
 21
-443.32033081054681
 31
0.0
  0
TEXT
  5
AB
  8
DIMNSIONS
 62
     7
 10
-457.45416666666659
 20
-459.9583333333332
 30
0.0
 40
20.360514322916671
  1
57.2
 50
90.0
 41
0.7
 11
-477.81468098958328
 21
-459.9583333333332
 31
0.0
 73
     3
  0
LINE
  5
AC
  8
DIMNSIONS
  6
CONTINUOUS
 62
     7
 10
-415.0
 20
-246.0
 30
0.0
 11
-515.0
 21
-246.0
 31
0.0
  0
LINE
  5
AD
  8
DIMNSIONS
  6
CONTINUOUS
 62
     7
 10
-390.0
 20
60.999999999999972
 30
0.0
 11
-515.0
 21
60.999999999999972
 31
0.0
  0
LINE
  5
AE
  8
DIMNSIONS
  6
CONTINUOUS
 62
     7
 10
-500.0
 20
-246.0
 30
0.0
 11
-500.0
 21
60.999999999999972
 31
0.0
  0
LINE
  5
AF
  8
DIMNSIONS
  6
CONTINUOUS
 62
     7
 10
-500.0
 20
-246.0
 30
0.0
 11
-505.02529846362683
 21
-227.2453308105469
 31
0.0
  0
LINE
  5
B0
  8
DIMNSIONS
  6
CONTINUOUS
 62
     7
 10
-500.0
 20
-246.0
 30
0.0
 11
-494.97470153637317
 21
-227.2453308105469
 31
0.0
  0
LINE
  5
B1
  8
DIMNSIONS
  6
CONTINUOUS
 62
     7
 10
-500.0
 20
60.999999999999972
 30
0.0
 11
-494.97470153637317
 21
42.245330810546847
 31
0.0
  0
LINE
  5
B2
  8
DIMNSIONS
  6
CONTINUOUS
 62
     7
 10
-500.0
 20
60.999999999999972
 30
0.0
 11
-505.02529846362683
 21
42.245330810546847
 31
0.0
  0
TEXT
  5
B3
  8
DIMNSIONS
 62
     7
 10
-507.45416666666648
 20
-112.34375
 30
0.0
 40
20.360514322916671
  1
307
 50
90.0
 41
0.7
 11
-527.81468098958317
 21
-112.34375
 31
0.0
 73
     3
  0
LINE
  5
B4
  8
DIMNSIONS
  6
CONTINUOUS
 62
     7
 10
-390.75
 20
-480.57499999999987
 30
0.0
 11
-390.75
 21
-564.99999999999977
 31
0.0
  0
LINE
  5
B5
  8
DIMNSIONS
  6
CONTINUOUS
 62
     7
 10
74.249999999999986
 20
-480.57499999999987
 30
0.0
 11
74.249999999999986
 21
-564.99999999999977
 31
0.0
  0
LINE
  5
B6
  8
DIMNSIONS
  6
CONTINUOUS
 62
     7
 10
-390.75
 20
-549.99999999999989
 30
0.0
 11
74.249999999999986
 21
-549.99999999999989
 31
0.0
  0
LINE
  5
B7
  8
DIMNSIONS
  6
CONTINUOUS
 62
     7
 10
-390.75
 20
-549.99999999999989
 30
0.0
 11
-371.99533081054687
 21
-544.97470153637312
 31
0.0
  0
LINE
  5
B8
  8
DIMNSIONS
  6
CONTINUOUS
 62
     7
 10
-390.75
 20
-549.99999999999989
 30
0.0
 11
-371.99533081054687
 21
-555.02529846362665
 31
0.0
  0
LINE
  5
B9
  8
DIMNSIONS
  6
CONTINUOUS
 62
     7
 10
74.249999999999986
 20
-549.99999999999989
 30
0.0
 11
55.495330810546847
 21
-555.02529846362677
 31
0.0
  0
LINE
  5
BA
  8
DIMNSIONS
  6
CONTINUOUS
 62
     7
 10
74.249999999999986
 20
-549.99999999999989
 30
0.0
 11
55.495330810546847
 21
-544.97470153637312
 31
0.0
  0
TEXT
  5
BB
  8
DIMNSIONS
 62
     7
 10
-178.09375
 20
-542.54583333333312
 30
0.0
 40
20.360514322916671
  1
465
 41
0.7
 11
-178.09375
 21
-522.18531901041638
 31
0.0
 73
     3
  0
LINE
  5
BC
  8
DIMNSIONS
  6
CONTINUOUS
 62
     7
 10
-415.0
 20
-250.0
 30
0.0
 11
-515.0
 21
-250.0
 31
0.0
  0
LINE
  5
BD
  8
DIMNSIONS
  6
CONTINUOUS
 62
     7
 10
-415.0
 20
-246.0
 30
0.0
 11
-515.0
 21
-246.0
 31
0.0
  0
LINE
  5
BE
  8
DIMNSIONS
  6
CONTINUOUS
 62
     7
 10
-500.0
 20
-246.0
 30
0.0
 11
-500.0
 21
-250.0
 31
0.0
  0
LINE
  5
BF
  8
DIMNSIONS
  6
CONTINUOUS
 62
     7
 10
-500.0
 20
-250.0
 30
0.0
 11
-500.0
 21
-288.22916666666669
 31
0.0
  0
LINE
  5
C0
  8
DIMNSIONS
  6
CONTINUOUS
 62
     7
 10
-500.0
 20
-250.0
 30
0.0
 11
-494.97470153637317
 21
-268.75466918945312
 31
0.0
  0
LINE
  5
C1
  8
DIMNSIONS
  6
CONTINUOUS
 62
     7
 10
-500.0
 20
-250.0
 30
0.0
 11
-505.02529846362683
 21
-268.75466918945312
 31
0.0
  0
LINE
  5
C2
  8
DIMNSIONS
  6
CONTINUOUS
 62
     7
 10
-500.0
 20
-246.0
 30
0.0
 11
-500.0
 21
-208.5
 31
0.0
  0
LINE
  5
C3
  8
DIMNSIONS
  6
CONTINUOUS
 62
     7
 10
-500.0
 20
-246.0
 30
0.0
 11
-505.02529846362683
 21
-227.2453308105469
 31
0.0
  0
LINE
  5
C4
  8
DIMNSIONS
  6
CONTINUOUS
 62
     7
 10
-500.0
 20
-246.0
 30
0.0
 11
-494.97470153637317
 21
-227.2453308105469
 31
0.0
  0
TEXT
  5
C5
  8
DIMNSIONS
 62
     7
 10
-507.45416666666671
 20
-288.22916666666669
 30
0.0
 40
20.360514322916671
  1
4
 50
90.0
 41
0.7
 11
-527.81468098958339
 21
-288.22916666666669
 31
0.0
 73
     3
  0
LINE
  5
C6
  8
DIMNSIONS
  6
CONTINUOUS
 62
     7
 10
150.0
 20
-514.99999999999977
 30
0.0
 11
150.0
 21
-564.99999999999977
 31
0.0
  0
LINE
  5
C7
  8
DIMNSIONS
  6
CONTINUOUS
 62
     7
 10
448.0
 20
-480.57499999999987
 30
0.0
 11
448.0
 21
-564.99999999999977
 31
0.0
  0
LINE
  5
C8
  8
DIMNSIONS
  6
CONTINUOUS
 62
     7
 10
150.0
 20
-549.99999999999989
 30
0.0
 11
448.0
 21
-549.99999999999989
 31
0.0
  0
LINE
  5
C9
  8
DIMNSIONS
  6
CONTINUOUS
 62
     7
 10
150.0
 20
-549.99999999999989
 30
0.0
 11
168.7546691894531
 21
-544.97470153637312
 31
0.0
  0
LINE
  5
CA
  8
DIMNSIONS
  6
CONTINUOUS
 62
     7
 10
150.0
 20
-549.99999999999989
 30
0.0
 11
168.7546691894531
 21
-555.02529846362665
 31
0.0
  0
LINE
  5
CB
  8
DIMNSIONS
  6
CONTINUOUS
 62
     7
 10
448.0
 20
-549.99999999999989
 30
0.0
 11
429.24533081054687
 21
-555.02529846362677
 31
0.0
  0
LINE
  5
CC
  8
DIMNSIONS
  6
CONTINUOUS
 62
     7
 10
448.0
 20
-549.99999999999989
 30
0.0
 11
429.24533081054687
 21
-544.97470153637312
 31
0.0
  0
TEXT
  5
CD
  8
DIMNSIONS
 62
     7
 10
279.15625
 20
-542.54583333333312
 30
0.0
 40
20.360514322916671
  1
298
 41
0.7
 11
279.15625
 21
-522.18531901041638
 31
0.0
 73
     3
  0
LINE
  5
CE
  8
DIMNSIONS
  6
CONTINUOUS
 62
     7
 10
464.5
 20
-404.9249999999999
 30
0.0
 11
540.0
 21
-404.9249999999999
 31
0.0
  0
LINE
  5
CF
  8
DIMNSIONS
  6
CONTINUOUS
 62
     7
 10
464.5
 20
-462.07499999999987
 30
0.0
 11
540.0
 21
-462.07499999999987
 31
0.0
  0
LINE
  5
D0
  8
DIMNSIONS
  6
CONTINUOUS
 62
     7
 10
525.0
 20
-404.9249999999999
 30
0.0
 11
525.0
 21
-462.07499999999987
 31
0.0
  0
LINE
  5
D1
  8
DIMNSIONS
  6
CONTINUOUS
 62
     7
 10
525.0
 20
-404.9249999999999
 30
0.0
 11
530.02529846362677
 21
-423.67966918945302
 31
0.0
  0
LINE
  5
D2
  8
DIMNSIONS
  6
CONTINUOUS
 62
     7
 10
525.0
 20
-404.9249999999999
 30
0.0
 11
519.97470153637312
 21
-423.67966918945302
 31
0.0
  0
LINE
  5
D3
  8
DIMNSIONS
  6
CONTINUOUS
 62
     7
 10
525.0
 20
-462.07499999999987
 30
0.0
 11
519.97470153637312
 21
-443.32033081054681
 31
0.0
  0
LINE
  5
D4
  8
DIMNSIONS
  6
CONTINUOUS
 62
     7
 10
525.0
 20
-462.07499999999987
 30
0.0
 11
530.02529846362677
 21
-443.32033081054681
 31
0.0
  0
TEXT
  5
D5
  8
DIMNSIONS
 62
     7
 10
517.54583333333335
 20
-459.9583333333332
 30
0.0
 40
20.360514322916671
  1
57.2
 50
90.0
 41
0.7
 11
497.18531901041672
 21
-459.9583333333332
 31
0.0
 73
     3
  0
LINE
  5
D6
  8
DIMNSIONS
  6
CONTINUOUS
 62
     7
 10
476.0
 20
-367.0
 30
0.0
 11
540.03379999999993
 21
-367.0
 31
0.0
  0
LINE
  5
D7
  8
DIMNSIONS
  6
CONTINUOUS
 62
     7
 10
464.5
 20
-404.9249999999999
 30
0.0
 11
540.03379999999993
 21
-404.9249999999999
 31
0.0
  0
LINE
  5
D8
  8
DIMNSIONS
  6
CONTINUOUS
 62
     7
 10
525.03379999999993
 20
-404.9249999999999
 30
0.0
 11
525.03379999999993
 21
-367.0
 31
0.0
  0
LINE
  5
D9
  8
DIMNSIONS
  6
CONTINUOUS
 62
     7
 10
525.03379999999993
 20
-367.0
 30
0.0
 11
525.03379999999993
 21
-297.08333333333331
 31
0.0
  0
LINE
  5
DA
  8
DIMNSIONS
  6
CONTINUOUS
 62
     7
 10
525.03379999999993
 20
-367.0
 30
0.0
 11
520.00850153637316
 21
-348.24533081054687
 31
0.0
  0
LINE
  5
DB
  8
DIMNSIONS
  6
CONTINUOUS
 62
     7
 10
525.03379999999993
 20
-367.0
 30
0.0
 11
530.05909846362681
 21
-348.24533081054687
 31
0.0
  0
LINE
  5
DC
  8
DIMNSIONS
  6
CONTINUOUS
 62
     7
 10
525.03379999999993
 20
-404.9249999999999
 30
0.0
 11
525.03379999999993
 21
-442.4249999999999
 31
0.0
  0
LINE
  5
DD
  8
DIMNSIONS
  6
CONTINUOUS
 62
     7
 10
525.03379999999993
 20
-404.9249999999999
 30
0.0
 11
530.05909846362681
 21
-423.67966918945302
 31
0.0
  0
LINE
  5
DE
  8
DIMNSIONS
  6
CONTINUOUS
 62
     7
 10
525.03379999999993
 20
-404.9249999999999
 30
0.0
 11
520.00850153637316
 21
-423.67966918945302
 31
0.0
  0
TEXT
  5
DF
  8
DIMNSIONS
 62
     7
 10
517.57963333333339
 20
-350.0
 30
0.0
 40
20.360514322916671
  1
37.9
 50
90.0
 41
0.7
 11
497.2191190104167
 21
-350.0
 31
0.0
 73
     3
  0
LINE
  5
E0
  8
DIMNSIONS
  6
CONTINUOUS
 62
     7
 10
-55.314550000000011
 20
-255.0
 30
0.0
 11
-465.0
 21
-255.0
 31
0.0
  0
LINE
  5
E1
  8
DIMNSIONS
  6
CONTINUOUS
 62
     7
 10
-415.0
 20
-250.0
 30
0.0
 11
-465.0
 21
-250.0
 31
0.0
  0
LINE
  5
E2
  8
DIMNSIONS
  6
CONTINUOUS
 62
     7
 10
-450.0
 20
-250.0
 30
0.0
 11
-450.0
 21
-255.0
 31
0.0
  0
LINE
  5
E3
  8
DIMNSIONS
  6
CONTINUOUS
 62
     7
 10
-450.0
 20
-255.0
 30
0.0
 11
-450.0
 21
-288.22916666666669
 31
0.0
  0
LINE
  5
E4
  8
DIMNSIONS
  6
CONTINUOUS
 62
     7
 10
-450.0
 20
-255.0
 30
0.0
 11
-444.97470153637317
 21
-273.75466918945312
 31
0.0
  0
LINE
  5
E5
  8
DIMNSIONS
  6
CONTINUOUS
 62
     7
 10
-450.0
 20
-255.0
 30
0.0
 11
-455.02529846362683
 21
-273.75466918945312
 31
0.0
  0
LINE
  5
E6
  8
DIMNSIONS
  6
CONTINUOUS
 62
     7
 10
-450.0
 20
-250.0
 30
0.0
 11
-450.0
 21
-212.5
 31
0.0
  0
LINE
  5
E7
  8
DIMNSIONS
  6
CONTINUOUS
 62
     7
 10
-450.0
 20
-250.0
 30
0.0
 11
-455.02529846362683
 21
-231.2453308105469
 31
0.0
  0
LINE
  5
E8
  8
DIMNSIONS
  6
CONTINUOUS
 62
     7
 10
-450.0
 20
-250.0
 30
0.0
 11
-444.97470153637317
 21
-231.2453308105469
 31
0.0
  0
TEXT
  5
E9
  8
DIMNSIONS
 62
     7
 10
-457.45416666666659
 20
-288.22916666666669
 30
0.0
 40
20.360514322916671
  1
5
 50
90.0
 41
0.7
 11
-477.81468098958328
 21
-288.22916666666669
 31
0.0
 73
     3
  0
TEXT
  5
EA
  8
DATA
 62
     7
 10
475.0
 20
-721.66624999999988
 30
0.0
 40
18.324462890625
  1
CE2000TX
 41
0.7
 11
475.0
 21
-703.34178710937488
 31
0.0
 73
     3
  0
TEXT
  5
EB
  8
DATA
 62
     7
 10
475.0
 20
-674.18649999999968
 30
0.0
 40
18.324462890625
  1
Amcron
 41
0.7
 11
475.0
 21
-655.8620371093748
 31
0.0
 73
     3
  0
LINE
  5
EC
  8
DATA
  6
CONTINUOUS
 62
     7
 10
-400.0
 20
-499.99999999999989
 30
0.0
 11
-400.0
 21
-367.0
 31
0.0
  0
LINE
  5
ED
  8
DATA
  6
CONTINUOUS
 62
     7
 10
83.499999999999986
 20
-499.99999999999989
 30
0.0
 11
-400.0
 21
-499.99999999999989
 31
0.0
  0
LINE
  5
EE
  8
DATA
  6
CONTINUOUS
 62
     7
 10
83.499999999999986
 20
-367.0
 30
0.0
 11
83.499999999999986
 21
-499.99999999999989
 31
0.0
  0
LINE
  5
EF
  8
DATA
  6
CONTINUOUS
 62
     7
 10
-400.0
 20
-367.0
 30
0.0
 11
83.499999999999986
 21
-367.0
 31
0.0
  0
LINE
  5
F0
  8
DATA
  6
CONTINUOUS
 62
     7
 10
-369.19999999999987
 20
-499.99999999999989
 30
0.0
 11
-369.19999999999987
 21
-367.0
 31
0.0
  0
CIRCLE
  5
F1
  8
DATA
  6
CONTINUOUS
 62
     7
 10
-379.0
 20
-377.0
 30
0.0
 40
2.25
  0
CIRCLE
  5
F2
  8
DATA
  6
CONTINUOUS
 62
     7
 10
-379.0
 20
-489.99999999999989
 30
0.0
 40
2.25
  0
LINE
  5
F3
  8
DATA
  6
CONTINUOUS
 62
     7
 10
52.699999999999989
 20
-499.99999999999989
 30
0.0
 11
52.699999999999989
 21
-367.0
 31
0.0
  0
CIRCLE
  5
F4
  8
DATA
  6
CONTINUOUS
 62
     7
 10
62.5
 20
-377.0
 30
0.0
 40
2.25
  0
CIRCLE
  5
F5
  8
DATA
  6
CONTINUOUS
 62
     7
 10
62.5
 20
-489.99999999999989
 30
0.0
 40
2.25
  0
LINE
  5
F6
  8
DATA
  6
CONTINUOUS
 62
     7
 10
-360.55000000000001
 20
-385.14999999999998
 30
0.0
 11
-325.74999999999989
 21
-385.14999999999998
 31
0.0
  0
LINE
  5
F7
  8
DATA
  6
CONTINUOUS
 62
     7
 10
-360.55000000000001
 20
-391.55000000000001
 30
0.0
 11
-325.74999999999989
 21
-391.55000000000001
 31
0.0
  0
ARC
  5
F8
  8
DATA
  6
CONTINUOUS
 62
     7
 10
-325.74999999999989
 20
-388.34999999999991
 30
0.0
 40
3.200000000000045
 50
270.0
 51
90.0
  0
ARC
  5
F9
  8
DATA
  6
CONTINUOUS
 62
     7
 10
-360.55000000000001
 20
-388.34999999999991
 30
0.0
 40
3.1999999999999309
 50
90.0
 51
270.0
  0
LINE
  5
FA
  8
DATA
  6
CONTINUOUS
 62
     7
 10
-360.55000000000001
 20
-394.14999999999998
 30
0.0
 11
-325.74999999999989
 21
-394.14999999999998
 31
0.0
  0
LINE
  5
FB
  8
DATA
  6
CONTINUOUS
 62
     7
 10
-360.55000000000001
 20
-400.55000000000001
 30
0.0
 11
-325.74999999999989
 21
-400.55000000000001
 31
0.0
  0
ARC
  5
FC
  8
DATA
  6
CONTINUOUS
 62
     7
 10
-325.74999999999989
 20
-397.34999999999991
 30
0.0
 40
3.200000000000045
 50
270.0
 51
90.0
  0
ARC
  5
FD
  8
DATA
  6
CONTINUOUS
 62
     7
 10
-360.55000000000001
 20
-397.34999999999991
 30
0.0
 40
3.1999999999999309
 50
90.0
 51
270.0
  0
LINE
  5
FE
  8
DATA
  6
CONTINUOUS
 62
     7
 10
-360.55000000000001
 20
-403.14999999999992
 30
0.0
 11
-325.74999999999989
 21
-403.14999999999992
 31
0.0
  0
LINE
  5
FF
  8
DATA
  6
CONTINUOUS
 62
     7
 10
-360.55000000000001
 20
-409.55000000000001
 30
0.0
 11
-325.74999999999989
 21
-409.55000000000001
 31
0.0
  0
ARC
  5
100
  8
DATA
  6
CONTINUOUS
 62
     7
 10
-325.74999999999989
 20
-406.34999999999991
 30
0.0
 40
3.200000000000045
 50
270.0
 51
90.0
  0
ARC
  5
101
  8
DATA
  6
CONTINUOUS
 62
     7
 10
-360.55000000000001
 20
-406.34999999999991
 30
0.0
 40
3.1999999999999309
 50
90.0
 51
270.0
  0
LINE
  5
102
  8
DATA
  6
CONTINUOUS
 62
     7
 10
-360.55000000000001
 20
-412.14999999999998
 30
0.0
 11
-325.74999999999989
 21
-412.14999999999998
 31
0.0
  0
LINE
  5
103
  8
DATA
  6
CONTINUOUS
 62
     7
 10
-360.55000000000001
 20
-418.55000000000001
 30
0.0
 11
-325.74999999999989
 21
-418.55000000000001
 31
0.0
  0
ARC
  5
104
  8
DATA
  6
CONTINUOUS
 62
     7
 10
-325.74999999999989
 20
-415.34999999999991
 30
0.0
 40
3.200000000000045
 50
270.0
 51
90.0
  0
ARC
  5
105
  8
DATA
  6
CONTINUOUS
 62
     7
 10
-360.55000000000001
 20
-415.34999999999991
 30
0.0
 40
3.1999999999999309
 50
90.0
 51
270.0
  0
LINE
  5
106
  8
DATA
  6
CONTINUOUS
 62
     7
 10
-360.55000000000001
 20
-421.14999999999998
 30
0.0
 11
-325.74999999999989
 21
-421.14999999999998
 31
0.0
  0
LINE
  5
107
  8
DATA
  6
CONTINUOUS
 62
     7
 10
-360.55000000000001
 20
-427.55000000000001
 30
0.0
 11
-325.74999999999989
 21
-427.55000000000001
 31
0.0
  0
ARC
  5
108
  8
DATA
  6
CONTINUOUS
 62
     7
 10
-325.74999999999989
 20
-424.34999999999991
 30
0.0
 40
3.200000000000045
 50
270.0
 51
90.0
  0
ARC
  5
109
  8
DATA
  6
CONTINUOUS
 62
     7
 10
-360.55000000000001
 20
-424.34999999999991
 30
0.0
 40
3.1999999999999309
 50
90.0
 51
270.0
  0
LINE
  5
10A
  8
DATA
  6
CONTINUOUS
 62
     7
 10
-360.55000000000001
 20
-430.14999999999992
 30
0.0
 11
-325.74999999999989
 21
-430.14999999999992
 31
0.0
  0
LINE
  5
10B
  8
DATA
  6
CONTINUOUS
 62
     7
 10
-360.55000000000001
 20
-436.5499999999999
 30
0.0
 11
-325.74999999999989
 21
-436.5499999999999
 31
0.0
  0
ARC
  5
10C
  8
DATA
  6
CONTINUOUS
 62
     7
 10
-325.74999999999989
 20
-433.34999999999991
 30
0.0
 40
3.200000000000045
 50
270.0
 51
90.0
  0
ARC
  5
10D
  8
DATA
  6
CONTINUOUS
 62
     7
 10
-360.55000000000001
 20
-433.34999999999991
 30
0.0
 40
3.1999999999999309
 50
90.0
 51
270.0
  0
LINE
  5
10E
  8
DATA
  6
CONTINUOUS
 62
     7
 10
-360.55000000000001
 20
-439.14999999999992
 30
0.0
 11
-325.74999999999989
 21
-439.14999999999992
 31
0.0
  0
LINE
  5
10F
  8
DATA
  6
CONTINUOUS
 62
     7
 10
-360.55000000000001
 20
-445.5499999999999
 30
0.0
 11
-325.74999999999989
 21
-445.5499999999999
 31
0.0
  0
ARC
  5
110
  8
DATA
  6
CONTINUOUS
 62
     7
 10
-325.74999999999989
 20
-442.3499999999998
 30
0.0
 40
3.200000000000045
 50
270.0
 51
90.0
  0
ARC
  5
111
  8
DATA
  6
CONTINUOUS
 62
     7
 10
-360.55000000000001
 20
-442.3499999999998
 30
0.0
 40
3.1999999999999309
 50
90.0
 51
270.0
  0
LINE
  5
112
  8
DATA
  6
CONTINUOUS
 62
     7
 10
-360.55000000000001
 20
-448.14999999999992
 30
0.0
 11
-325.74999999999989
 21
-448.14999999999992
 31
0.0
  0
LINE
  5
113
  8
DATA
  6
CONTINUOUS
 62
     7
 10
-360.55000000000001
 20
-454.55000000000001
 30
0.0
 11
-325.74999999999989
 21
-454.55000000000001
 31
0.0
  0
ARC
  5
114
  8
DATA
  6
CONTINUOUS
 62
     7
 10
-325.74999999999989
 20
-451.34999999999991
 30
0.0
 40
3.200000000000045
 50
270.0
 51
90.0
  0
ARC
  5
115
  8
DATA
  6
CONTINUOUS
 62
     7
 10
-360.55000000000001
 20
-451.34999999999991
 30
0.0
 40
3.1999999999999309
 50
90.0
 51
270.0
  0
LINE
  5
116
  8
DATA
  6
CONTINUOUS
 62
     7
 10
-315.0499999999999
 20
-385.14999999999998
 30
0.0
 11
-280.24999999999989
 21
-385.14999999999998
 31
0.0
  0
LINE
  5
117
  8
DATA
  6
CONTINUOUS
 62
     7
 10
-315.0499999999999
 20
-391.55000000000001
 30
0.0
 11
-280.24999999999989
 21
-391.55000000000001
 31
0.0
  0
ARC
  5
118
  8
DATA
  6
CONTINUOUS
 62
     7
 10
-280.24999999999989
 20
-388.34999999999991
 30
0.0
 40
3.200000000000045
 50
270.0
 51
90.0
  0
ARC
  5
119
  8
DATA
  6
CONTINUOUS
 62
     7
 10
-315.0499999999999
 20
-388.34999999999991
 30
0.0
 40
3.1999999999999309
 50
90.0
 51
270.0
  0
LINE
  5
11A
  8
DATA
  6
CONTINUOUS
 62
     7
 10
-315.0499999999999
 20
-394.14999999999998
 30
0.0
 11
-280.24999999999989
 21
-394.14999999999998
 31
0.0
  0
LINE
  5
11B
  8
DATA
  6
CONTINUOUS
 62
     7
 10
-315.0499999999999
 20
-400.55000000000001
 30
0.0
 11
-280.24999999999989
 21
-400.55000000000001
 31
0.0
  0
ARC
  5
11C
  8
DATA
  6
CONTINUOUS
 62
     7
 10
-280.24999999999989
 20
-397.34999999999991
 30
0.0
 40
3.200000000000045
 50
270.0
 51
90.0
  0
ARC
  5
11D
  8
DATA
  6
CONTINUOUS
 62
     7
 10
-315.0499999999999
 20
-397.34999999999991
 30
0.0
 40
3.1999999999999309
 50
90.0
 51
270.0
  0
LINE
  5
11E
  8
DATA
  6
CONTINUOUS
 62
     7
 10
-315.0499999999999
 20
-403.14999999999992
 30
0.0
 11
-280.24999999999989
 21
-403.14999999999992
 31
0.0
  0
LINE
  5
11F
  8
DATA
  6
CONTINUOUS
 62
     7
 10
-315.0499999999999
 20
-409.55000000000001
 30
0.0
 11
-280.24999999999989
 21
-409.55000000000001
 31
0.0
  0
ARC
  5
120
  8
DATA
  6
CONTINUOUS
 62
     7
 10
-280.24999999999989
 20
-406.34999999999991
 30
0.0
 40
3.200000000000045
 50
270.0
 51
90.0
  0
ARC
  5
121
  8
DATA
  6
CONTINUOUS
 62
     7
 10
-315.0499999999999
 20
-406.34999999999991
 30
0.0
 40
3.1999999999999309
 50
90.0
 51
270.0
  0
LINE
  5
122
  8
DATA
  6
CONTINUOUS
 62
     7
 10
-315.0499999999999
 20
-412.14999999999998
 30
0.0
 11
-280.24999999999989
 21
-412.14999999999998
 31
0.0
  0
LINE
  5
123
  8
DATA
  6
CONTINUOUS
 62
     7
 10
-315.0499999999999
 20
-418.55000000000001
 30
0.0
 11
-280.24999999999989
 21
-418.55000000000001
 31
0.0
  0
ARC
  5
124
  8
DATA
  6
CONTINUOUS
 62
     7
 10
-280.24999999999989
 20
-415.34999999999991
 30
0.0
 40
3.200000000000045
 50
270.0
 51
90.0
  0
ARC
  5
125
  8
DATA
  6
CONTINUOUS
 62
     7
 10
-315.0499999999999
 20
-415.34999999999991
 30
0.0
 40
3.1999999999999309
 50
90.0
 51
270.0
  0
LINE
  5
126
  8
DATA
  6
CONTINUOUS
 62
     7
 10
-315.0499999999999
 20
-421.14999999999998
 30
0.0
 11
-280.24999999999989
 21
-421.14999999999998
 31
0.0
  0
LINE
  5
127
  8
DATA
  6
CONTINUOUS
 62
     7
 10
-315.0499999999999
 20
-427.55000000000001
 30
0.0
 11
-280.24999999999989
 21
-427.55000000000001
 31
0.0
  0
ARC
  5
128
  8
DATA
  6
CONTINUOUS
 62
     7
 10
-280.24999999999989
 20
-424.34999999999991
 30
0.0
 40
3.200000000000045
 50
270.0
 51
90.0
  0
ARC
  5
129
  8
DATA
  6
CONTINUOUS
 62
     7
 10
-315.0499999999999
 20
-424.34999999999991
 30
0.0
 40
3.1999999999999309
 50
90.0
 51
270.0
  0
LINE
  5
12A
  8
DATA
  6
CONTINUOUS
 62
     7
 10
-315.0499999999999
 20
-430.14999999999992
 30
0.0
 11
-280.24999999999989
 21
-430.14999999999992
 31
0.0
  0
LINE
  5
12B
  8
DATA
  6
CONTINUOUS
 62
     7
 10
-315.0499999999999
 20
-436.5499999999999
 30
0.0
 11
-280.24999999999989
 21
-436.5499999999999
 31
0.0
  0
ARC
  5
12C
  8
DATA
  6
CONTINUOUS
 62
     7
 10
-280.24999999999989
 20
-433.34999999999991
 30
0.0
 40
3.200000000000045
 50
270.0
 51
90.0
  0
ARC
  5
12D
  8
DATA
  6
CONTINUOUS
 62
     7
 10
-315.0499999999999
 20
-433.34999999999991
 30
0.0
 40
3.1999999999999309
 50
90.0
 51
270.0
  0
LINE
  5
12E
  8
DATA
  6
CONTINUOUS
 62
     7
 10
-315.0499999999999
 20
-439.14999999999992
 30
0.0
 11
-280.24999999999989
 21
-439.14999999999992
 31
0.0
  0
LINE
  5
12F
  8
DATA
  6
CONTINUOUS
 62
     7
 10
-315.0499999999999
 20
-445.5499999999999
 30
0.0
 11
-280.24999999999989
 21
-445.5499999999999
 31
0.0
  0
ARC
  5
130
  8
DATA
  6
CONTINUOUS
 62
     7
 10
-280.24999999999989
 20
-442.3499999999998
 30
0.0
 40
3.200000000000045
 50
270.0
 51
90.0
  0
ARC
  5
131
  8
DATA
  6
CONTINUOUS
 62
     7
 10
-315.0499999999999
 20
-442.3499999999998
 30
0.0
 40
3.1999999999999309
 50
90.0
 51
270.0
  0
LINE
  5
132
  8
DATA
  6
CONTINUOUS
 62
     7
 10
-315.0499999999999
 20
-448.14999999999992
 30
0.0
 11
-280.24999999999989
 21
-448.14999999999992
 31
0.0
  0
LINE
  5
133
  8
DATA
  6
CONTINUOUS
 62
     7
 10
-315.0499999999999
 20
-454.55000000000001
 30
0.0
 11
-280.24999999999989
 21
-454.55000000000001
 31
0.0
  0
ARC
  5
134
  8
DATA
  6
CONTINUOUS
 62
     7
 10
-280.24999999999989
 20
-451.34999999999991
 30
0.0
 40
3.200000000000045
 50
270.0
 51
90.0
  0
ARC
  5
135
  8
DATA
  6
CONTINUOUS
 62
     7
 10
-315.0499999999999
 20
-451.34999999999991
 30
0.0
 40
3.1999999999999309
 50
90.0
 51
270.0
  0
LINE
  5
136
  8
DATA
  6
CONTINUOUS
 62
     7
 10
44.049999999999997
 20
-385.14999999999998
 30
0.0
 11
9.249999999999984
 21
-385.14999999999998
 31
0.0
  0
LINE
  5
137
  8
DATA
  6
CONTINUOUS
 62
     7
 10
44.049999999999997
 20
-391.55000000000001
 30
0.0
 11
9.249999999999984
 21
-391.55000000000001
 31
0.0
  0
ARC
  5
138
  8
DATA
  6
CONTINUOUS
 62
     7
 10
9.249999999999984
 20
-388.34999999999991
 30
0.0
 40
3.1999999999999309
 50
90.0
 51
270.0
  0
ARC
  5
139
  8
DATA
  6
CONTINUOUS
 62
     7
 10
44.049999999999997
 20
-388.34999999999991
 30
0.0
 40
3.200000000000045
 50
270.0
 51
90.0
  0
LINE
  5
13A
  8
DATA
  6
CONTINUOUS
 62
     7
 10
44.049999999999997
 20
-394.14999999999998
 30
0.0
 11
9.249999999999984
 21
-394.14999999999998
 31
0.0
  0
LINE
  5
13B
  8
DATA
  6
CONTINUOUS
 62
     7
 10
44.049999999999997
 20
-400.55000000000001
 30
0.0
 11
9.249999999999984
 21
-400.55000000000001
 31
0.0
  0
ARC
  5
13C
  8
DATA
  6
CONTINUOUS
 62
     7
 10
9.249999999999984
 20
-397.34999999999991
 30
0.0
 40
3.1999999999999309
 50
90.0
 51
270.0
  0
ARC
  5
13D
  8
DATA
  6
CONTINUOUS
 62
     7
 10
44.049999999999997
 20
-397.34999999999991
 30
0.0
 40
3.200000000000045
 50
270.0
 51
90.0
  0
LINE
  5
13E
  8
DATA
  6
CONTINUOUS
 62
     7
 10
44.049999999999997
 20
-403.14999999999992
 30
0.0
 11
9.249999999999984
 21
-403.14999999999992
 31
0.0
  0
LINE
  5
13F
  8
DATA
  6
CONTINUOUS
 62
     7
 10
44.049999999999997
 20
-409.55000000000001
 30
0.0
 11
9.249999999999984
 21
-409.55000000000001
 31
0.0
  0
ARC
  5
140
  8
DATA
  6
CONTINUOUS
 62
     7
 10
9.249999999999984
 20
-406.34999999999991
 30
0.0
 40
3.1999999999999309
 50
90.0
 51
270.0
  0
ARC
  5
141
  8
DATA
  6
CONTINUOUS
 62
     7
 10
44.049999999999997
 20
-406.34999999999991
 30
0.0
 40
3.200000000000045
 50
270.0
 51
90.0
  0
LINE
  5
142
  8
DATA
  6
CONTINUOUS
 62
     7
 10
44.049999999999997
 20
-412.14999999999998
 30
0.0
 11
9.249999999999984
 21
-412.14999999999998
 31
0.0
  0
LINE
  5
143
  8
DATA
  6
CONTINUOUS
 62
     7
 10
44.049999999999997
 20
-418.55000000000001
 30
0.0
 11
9.249999999999984
 21
-418.55000000000001
 31
0.0
  0
ARC
  5
144
  8
DATA
  6
CONTINUOUS
 62
     7
 10
9.249999999999984
 20
-415.34999999999991
 30
0.0
 40
3.1999999999999309
 50
90.0
 51
270.0
  0
ARC
  5
145
  8
DATA
  6
CONTINUOUS
 62
     7
 10
44.049999999999997
 20
-415.34999999999991
 30
0.0
 40
3.200000000000045
 50
270.0
 51
90.0
  0
LINE
  5
146
  8
DATA
  6
CONTINUOUS
 62
     7
 10
44.049999999999997
 20
-421.14999999999998
 30
0.0
 11
9.249999999999984
 21
-421.14999999999998
 31
0.0
  0
LINE
  5
147
  8
DATA
  6
CONTINUOUS
 62
     7
 10
44.049999999999997
 20
-427.55000000000001
 30
0.0
 11
9.249999999999984
 21
-427.55000000000001
 31
0.0
  0
ARC
  5
148
  8
DATA
  6
CONTINUOUS
 62
     7
 10
9.249999999999984
 20
-424.34999999999991
 30
0.0
 40
3.1999999999999309
 50
90.0
 51
270.0
  0
ARC
  5
149
  8
DATA
  6
CONTINUOUS
 62
     7
 10
44.049999999999997
 20
-424.34999999999991
 30
0.0
 40
3.200000000000045
 50
270.0
 51
90.0
  0
LINE
  5
14A
  8
DATA
  6
CONTINUOUS
 62
     7
 10
44.049999999999997
 20
-430.14999999999992
 30
0.0
 11
9.249999999999984
 21
-430.14999999999992
 31
0.0
  0
LINE
  5
14B
  8
DATA
  6
CONTINUOUS
 62
     7
 10
44.049999999999997
 20
-436.5499999999999
 30
0.0
 11
9.249999999999984
 21
-436.5499999999999
 31
0.0
  0
ARC
  5
14C
  8
DATA
  6
CONTINUOUS
 62
     7
 10
9.249999999999984
 20
-433.34999999999991
 30
0.0
 40
3.1999999999999309
 50
90.0
 51
270.0
  0
ARC
  5
14D
  8
DATA
  6
CONTINUOUS
 62
     7
 10
44.049999999999997
 20
-433.34999999999991
 30
0.0
 40
3.200000000000045
 50
270.0
 51
90.0
  0
LINE
  5
14E
  8
DATA
  6
CONTINUOUS
 62
     7
 10
44.049999999999997
 20
-439.14999999999992
 30
0.0
 11
9.249999999999984
 21
-439.14999999999992
 31
0.0
  0
LINE
  5
14F
  8
DATA
  6
CONTINUOUS
 62
     7
 10
44.049999999999997
 20
-445.5499999999999
 30
0.0
 11
9.249999999999984
 21
-445.5499999999999
 31
0.0
  0
ARC
  5
150
  8
DATA
  6
CONTINUOUS
 62
     7
 10
9.249999999999984
 20
-442.3499999999998
 30
0.0
 40
3.1999999999999309
 50
90.0
 51
270.0
  0
ARC
  5
151
  8
DATA
  6
CONTINUOUS
 62
     7
 10
44.049999999999997
 20
-442.3499999999998
 30
0.0
 40
3.200000000000045
 50
270.0
 51
90.0
  0
LINE
  5
152
  8
DATA
  6
CONTINUOUS
 62
     7
 10
44.049999999999997
 20
-448.14999999999992
 30
0.0
 11
9.249999999999984
 21
-448.14999999999992
 31
0.0
  0
LINE
  5
153
  8
DATA
  6
CONTINUOUS
 62
     7
 10
44.049999999999997
 20
-454.55000000000001
 30
0.0
 11
9.249999999999984
 21
-454.55000000000001
 31
0.0
  0
ARC
  5
154
  8
DATA
  6
CONTINUOUS
 62
     7
 10
9.249999999999984
 20
-451.34999999999991
 30
0.0
 40
3.1999999999999309
 50
90.0
 51
270.0
  0
ARC
  5
155
  8
DATA
  6
CONTINUOUS
 62
     7
 10
44.049999999999997
 20
-451.34999999999991
 30
0.0
 40
3.200000000000045
 50
270.0
 51
90.0
  0
LINE
  5
156
  8
DATA
  6
CONTINUOUS
 62
     7
 10
-1.450000000000002
 20
-385.14999999999998
 30
0.0
 11
-36.25
 21
-385.14999999999998
 31
0.0
  0
LINE
  5
157
  8
DATA
  6
CONTINUOUS
 62
     7
 10
-1.450000000000002
 20
-391.55000000000001
 30
0.0
 11
-36.25
 21
-391.55000000000001
 31
0.0
  0
ARC
  5
158
  8
DATA
  6
CONTINUOUS
 62
     7
 10
-36.25
 20
-388.34999999999991
 30
0.0
 40
3.1999999999999309
 50
90.0
 51
270.0
  0
ARC
  5
159
  8
DATA
  6
CONTINUOUS
 62
     7
 10
-1.450000000000002
 20
-388.34999999999991
 30
0.0
 40
3.200000000000045
 50
270.0
 51
90.0
  0
LINE
  5
15A
  8
DATA
  6
CONTINUOUS
 62
     7
 10
-1.450000000000002
 20
-394.14999999999998
 30
0.0
 11
-36.25
 21
-394.14999999999998
 31
0.0
  0
LINE
  5
15B
  8
DATA
  6
CONTINUOUS
 62
     7
 10
-1.450000000000002
 20
-400.55000000000001
 30
0.0
 11
-36.25
 21
-400.55000000000001
 31
0.0
  0
ARC
  5
15C
  8
DATA
  6
CONTINUOUS
 62
     7
 10
-36.25
 20
-397.34999999999991
 30
0.0
 40
3.1999999999999309
 50
90.0
 51
270.0
  0
ARC
  5
15D
  8
DATA
  6
CONTINUOUS
 62
     7
 10
-1.450000000000002
 20
-397.34999999999991
 30
0.0
 40
3.200000000000045
 50
270.0
 51
90.0
  0
LINE
  5
15E
  8
DATA
  6
CONTINUOUS
 62
     7
 10
-1.450000000000002
 20
-403.14999999999992
 30
0.0
 11
-36.25
 21
-403.14999999999992
 31
0.0
  0
LINE
  5
15F
  8
DATA
  6
CONTINUOUS
 62
     7
 10
-1.450000000000002
 20
-409.55000000000001
 30
0.0
 11
-36.25
 21
-409.55000000000001
 31
0.0
  0
ARC
  5
160
  8
DATA
  6
CONTINUOUS
 62
     7
 10
-36.25
 20
-406.34999999999991
 30
0.0
 40
3.1999999999999309
 50
90.0
 51
270.0
  0
ARC
  5
161
  8
DATA
  6
CONTINUOUS
 62
     7
 10
-1.450000000000002
 20
-406.34999999999991
 30
0.0
 40
3.200000000000045
 50
270.0
 51
90.0
  0
LINE
  5
162
  8
DATA
  6
CONTINUOUS
 62
     7
 10
-1.450000000000002
 20
-412.14999999999998
 30
0.0
 11
-36.25
 21
-412.14999999999998
 31
0.0
  0
LINE
  5
163
  8
DATA
  6
CONTINUOUS
 62
     7
 10
-1.450000000000002
 20
-418.55000000000001
 30
0.0
 11
-36.25
 21
-418.55000000000001
 31
0.0
  0
ARC
  5
164
  8
DATA
  6
CONTINUOUS
 62
     7
 10
-36.25
 20
-415.34999999999991
 30
0.0
 40
3.1999999999999309
 50
90.0
 51
270.0
  0
ARC
  5
165
  8
DATA
  6
CONTINUOUS
 62
     7
 10
-1.450000000000002
 20
-415.34999999999991
 30
0.0
 40
3.200000000000045
 50
270.0
 51
90.0
  0
LINE
  5
166
  8
DATA
  6
CONTINUOUS
 62
     7
 10
-1.450000000000002
 20
-421.14999999999998
 30
0.0
 11
-36.25
 21
-421.14999999999998
 31
0.0
  0
LINE
  5
167
  8
DATA
  6
CONTINUOUS
 62
     7
 10
-1.450000000000002
 20
-427.55000000000001
 30
0.0
 11
-36.25
 21
-427.55000000000001
 31
0.0
  0
ARC
  5
168
  8
DATA
  6
CONTINUOUS
 62
     7
 10
-36.25
 20
-424.34999999999991
 30
0.0
 40
3.1999999999999309
 50
90.0
 51
270.0
  0
ARC
  5
169
  8
DATA
  6
CONTINUOUS
 62
     7
 10
-1.450000000000002
 20
-424.34999999999991
 30
0.0
 40
3.200000000000045
 50
270.0
 51
90.0
  0
LINE
  5
16A
  8
DATA
  6
CONTINUOUS
 62
     7
 10
-1.450000000000002
 20
-430.14999999999992
 30
0.0
 11
-36.25
 21
-430.14999999999992
 31
0.0
  0
LINE
  5
16B
  8
DATA
  6
CONTINUOUS
 62
     7
 10
-1.450000000000002
 20
-436.5499999999999
 30
0.0
 11
-36.25
 21
-436.5499999999999
 31
0.0
  0
ARC
  5
16C
  8
DATA
  6
CONTINUOUS
 62
     7
 10
-36.25
 20
-433.34999999999991
 30
0.0
 40
3.1999999999999309
 50
90.0
 51
270.0
  0
ARC
  5
16D
  8
DATA
  6
CONTINUOUS
 62
     7
 10
-1.450000000000002
 20
-433.34999999999991
 30
0.0
 40
3.200000000000045
 50
270.0
 51
90.0
  0
LINE
  5
16E
  8
DATA
  6
CONTINUOUS
 62
     7
 10
-1.450000000000002
 20
-439.14999999999992
 30
0.0
 11
-36.25
 21
-439.14999999999992
 31
0.0
  0
LINE
  5
16F
  8
DATA
  6
CONTINUOUS
 62
     7
 10
-1.450000000000002
 20
-445.5499999999999
 30
0.0
 11
-36.25
 21
-445.5499999999999
 31
0.0
  0
ARC
  5
170
  8
DATA
  6
CONTINUOUS
 62
     7
 10
-36.25
 20
-442.3499999999998
 30
0.0
 40
3.1999999999999309
 50
90.0
 51
270.0
  0
ARC
  5
171
  8
DATA
  6
CONTINUOUS
 62
     7
 10
-1.450000000000002
 20
-442.3499999999998
 30
0.0
 40
3.200000000000045
 50
270.0
 51
90.0
  0
LINE
  5
172
  8
DATA
  6
CONTINUOUS
 62
     7
 10
-1.450000000000002
 20
-448.14999999999992
 30
0.0
 11
-36.25
 21
-448.14999999999992
 31
0.0
  0
LINE
  5
173
  8
DATA
  6
CONTINUOUS
 62
     7
 10
-1.450000000000002
 20
-454.55000000000001
 30
0.0
 11
-36.25
 21
-454.55000000000001
 31
0.0
  0
ARC
  5
174
  8
DATA
  6
CONTINUOUS
 62
     7
 10
-36.25
 20
-451.34999999999991
 30
0.0
 40
3.1999999999999309
 50
90.0
 51
270.0
  0
ARC
  5
175
  8
DATA
  6
CONTINUOUS
 62
     7
 10
-1.450000000000002
 20
-451.34999999999991
 30
0.0
 40
3.200000000000045
 50
270.0
 51
90.0
  0
LINE
  5
176
  8
DATA
  6
CONTINUOUS
 62
     7
 10
-400.0
 20
200.0
 30
0.0
 11
-400.0
 21
332.69999999999999
 31
0.0
  0
LINE
  5
177
  8
DATA
  6
CONTINUOUS
 62
     7
 10
83.499999999999986
 20
200.0
 30
0.0
 11
-400.0
 21
200.0
 31
0.0
  0
LINE
  5
178
  8
DATA
  6
CONTINUOUS
 62
     7
 10
83.499999999999986
 20
332.69999999999999
 30
0.0
 11
83.499999999999986
 21
200.0
 31
0.0
  0
LINE
  5
179
  8
DATA
  6
CONTINUOUS
 62
     7
 10
-400.0
 20
332.69999999999999
 30
0.0
 11
83.499999999999986
 21
332.69999999999999
 31
0.0
  0
LINE
  5
17A
  8
DATA
  6
CONTINUOUS
 62
     7
 10
-373.25
 20
206.5
 30
0.0
 11
-373.25
 21
332.52391999999998
 31
0.0
  0
CIRCLE
  5
17B
  8
DATA
  6
CONTINUOUS
 62
     7
 10
-379.0
 20
322.85000000000002
 30
0.0
 40
2.25
  0
CIRCLE
  5
17C
  8
DATA
  6
CONTINUOUS
 62
     7
 10
-379.0
 20
209.84999999999999
 30
0.0
 40
2.25
  0
LINE
  5
17D
  8
DATA
  6
CONTINUOUS
 62
     7
 10
56.75
 20
206.5
 30
0.0
 11
56.75
 21
332.52391999999998
 31
0.0
  0
CIRCLE
  5
17E
  8
DATA
  6
CONTINUOUS
 62
     7
 10
62.5
 20
322.85000000000002
 30
0.0
 40
2.25
  0
CIRCLE
  5
17F
  8
DATA
  6
CONTINUOUS
 62
     7
 10
62.5
 20
209.84999999999999
 30
0.0
 40
2.25
  0
LINE
  5
180
  8
DATA
  6
CONTINUOUS
 62
     7
 10
-374.75
 20
215.0
 30
0.0
 11
-374.75
 21
200.0
 31
0.0
  0
LINE
  5
181
  8
DATA
  6
CONTINUOUS
 62
     7
 10
58.25
 20
215.0
 30
0.0
 11
58.25
 21
200.0
 31
0.0
  0
LINE
  5
182
  8
DATA
  6
CONTINUOUS
 62
     7
 10
56.75
 20
215.0
 30
0.0
 11
58.25
 21
215.0
 31
0.0
  0
LINE
  5
183
  8
DATA
  6
CONTINUOUS
 62
     7
 10
-374.75
 20
215.0
 30
0.0
 11
-373.25
 21
215.0
 31
0.0
  0
LINE
  5
184
  8
DATA
  6
CONTINUOUS
 62
     7
 10
-369.75
 20
206.5
 30
0.0
 11
-369.75
 21
329.19999999999999
 31
0.0
  0
LINE
  5
185
  8
DATA
  6
CONTINUOUS
 62
     7
 10
53.25
 20
206.5
 30
0.0
 11
53.25
 21
329.19999999999999
 31
0.0
  0
LINE
  5
186
  8
DATA
  6
CONTINUOUS
 62
     7
 10
55.0
 20
206.5
 30
0.0
 11
55.0
 21
330.86196000000001
 31
0.0
  0
LINE
  5
187
  8
DATA
  6
CONTINUOUS
 62
     7
 10
-371.5
 20
206.5
 30
0.0
 11
-371.5
 21
330.86196000000001
 31
0.0
  0
LINE
  5
188
  8
DATA
  6
CONTINUOUS
 62
     7
 10
-371.5
 20
330.94999999999999
 30
0.0
 11
55.0
 21
330.94999999999999
 31
0.0
  0
LINE
  5
189
  8
DATA
  6
CONTINUOUS
 62
     7
 10
-369.75
 20
329.19999999999999
 30
0.0
 11
53.25
 21
329.19999999999999
 31
0.0
  0
LINE
  5
18A
  8
DATA
  6
CONTINUOUS
 62
     7
 10
56.75
 20
206.5
 30
0.0
 11
-373.25
 21
206.5
 31
0.0
  0
LINE
  5
18B
  8
DATA
  6
CONTINUOUS
 62
     7
 10
-36.25
 20
212.84999999999999
 30
0.0
 11
-36.25
 21
322.85000000000002
 31
0.0
  0
LINE
  5
18C
  8
DATA
  6
CONTINUOUS
 62
     7
 10
-156.25
 20
212.84999999999999
 30
0.0
 11
-156.25
 21
322.85000000000002
 31
0.0
  0
LINE
  5
18D
  8
DATA
  6
CONTINUOUS
 62
     7
 10
-41.249999999999993
 20
207.84999999999999
 30
0.0
 11
-151.25
 21
207.84999999999999
 31
0.0
  0
LINE
  5
18E
  8
DATA
  6
CONTINUOUS
 62
     7
 10
-41.249999999999993
 20
327.85000000000002
 30
0.0
 11
-151.25
 21
327.85000000000002
 31
0.0
  0
CIRCLE
  5
18F
  8
DATA
  6
CONTINUOUS
 62
     7
 10
-96.25
 20
267.85000000000002
 30
0.0
 40
60.0
  0
CIRCLE
  5
190
  8
DATA
  6
CONTINUOUS
 62
     7
 10
-96.25
 20
267.85000000000002
 30
0.0
 40
29.5
  0
ARC
  5
191
  8
DATA
  6
CONTINUOUS
 62
     7
 10
-96.25
 20
267.85000000000002
 30
0.0
 40
63.49999905499525
 50
289.11172967645359
 51
340.88827032354629
  0
ARC
  5
192
  8
DATA
  6
CONTINUOUS
 62
     7
 10
-96.25
 20
267.85000000000002
 30
0.0
 40
63.499999020954327
 50
108.6495353343783
 51
161.0373155236486
  0
ARC
  5
193
  8
DATA
  6
CONTINUOUS
 62
     7
 10
-96.25
 20
267.85000000000002
 30
0.0
 40
63.499999054995293
 50
199.11172967645351
 51
250.88827032354641
  0
ARC
  5
194
  8
DATA
  6
CONTINUOUS
 62
     7
 10
-96.25
 20
267.85000000000002
 30
0.0
 40
63.499999054995271
 50
19.111729676453631
 51
70.888270323546394
  0
CIRCLE
  5
195
  8
DATA
  6
CONTINUOUS
 62
     7
 10
-96.25
 20
267.85000000000002
 30
0.0
 40
24.0
  0
CIRCLE
  5
196
  8
DATA
  6
CONTINUOUS
 62
     7
 10
-96.25
 20
267.85000000000002
 30
0.0
 40
35.599998005617913
  0
CIRCLE
  5
197
  8
DATA
  6
CONTINUOUS
 62
     7
 10
-96.25
 20
267.85000000000002
 30
0.0
 40
41.699996074879891
  0
CIRCLE
  5
198
  8
DATA
  6
CONTINUOUS
 62
     7
 10
-96.25
 20
267.85000000000002
 30
0.0
 40
47.799994144141891
  0
CIRCLE
  5
199
  8
DATA
  6
CONTINUOUS
 62
     7
 10
-96.25
 20
267.85000000000002
 30
0.0
 40
53.899992213403863
  0
CIRCLE
  5
19A
  8
DATA
  6
CONTINUOUS
 62
     7
 10
-43.749999999999993
 20
215.34999999999999
 30
0.0
 40
4.0
  0
LINE
  5
19B
  8
DATA
  6
CONTINUOUS
 62
     7
 10
-41.249999999999993
 20
215.34999999999999
 30
0.0
 11
-46.249999999999993
 21
215.34999999999999
 31
0.0
  0
LINE
  5
19C
  8
DATA
  6
CONTINUOUS
 62
     7
 10
-43.749999999999993
 20
217.84999999999999
 30
0.0
 11
-43.749999999999993
 21
212.84999999999999
 31
0.0
  0
CIRCLE
  5
19D
  8
DATA
  6
CONTINUOUS
 62
     7
 10
-148.75
 20
215.34999999999999
 30
0.0
 40
4.0
  0
LINE
  5
19E
  8
DATA
  6
CONTINUOUS
 62
     7
 10
-146.25
 20
215.34999999999999
 30
0.0
 11
-151.25
 21
215.34999999999999
 31
0.0
  0
LINE
  5
19F
  8
DATA
  6
CONTINUOUS
 62
     7
 10
-148.75
 20
217.84999999999999
 30
0.0
 11
-148.75
 21
212.84999999999999
 31
0.0
  0
CIRCLE
  5
1A0
  8
DATA
  6
CONTINUOUS
 62
     7
 10
-148.75
 20
320.35000000000002
 30
0.0
 40
4.0
  0
LINE
  5
1A1
  8
DATA
  6
CONTINUOUS
 62
     7
 10
-146.25
 20
320.35000000000002
 30
0.0
 11
-151.25
 21
320.35000000000002
 31
0.0
  0
LINE
  5
1A2
  8
DATA
  6
CONTINUOUS
 62
     7
 10
-148.75
 20
322.85000000000002
 30
0.0
 11
-148.75
 21
317.85000000000002
 31
0.0
  0
CIRCLE
  5
1A3
  8
DATA
  6
CONTINUOUS
 62
     7
 10
-43.749999999999993
 20
320.35000000000002
 30
0.0
 40
4.0
  0
LINE
  5
1A4
  8
DATA
  6
CONTINUOUS
 62
     7
 10
-41.249999999999993
 20
320.35000000000002
 30
0.0
 11
-46.249999999999993
 21
320.35000000000002
 31
0.0
  0
LINE
  5
1A5
  8
DATA
  6
CONTINUOUS
 62
     7
 10
-43.749999999999993
 20
322.85000000000002
 30
0.0
 11
-43.749999999999993
 21
317.85000000000002
 31
0.0
  0
ARC
  5
1A6
  8
DATA
  6
CONTINUOUS
 62
     7
 10
-41.249999999999993
 20
212.84999999999999
 30
0.0
 40
4.9999999999999849
 50
270.0
 51
0.0
  0
ARC
  5
1A7
  8
DATA
  6
CONTINUOUS
 62
     7
 10
-151.25
 20
212.84999999999999
 30
0.0
 40
5.0
 50
180.0
 51
270.0
  0
ARC
  5
1A8
  8
DATA
  6
CONTINUOUS
 62
     7
 10
-151.25
 20
322.85000000000002
 30
0.0
 40
5.0
 50
90.0
 51
180.0
  0
ARC
  5
1A9
  8
DATA
  6
CONTINUOUS
 62
     7
 10
-41.249999999999993
 20
322.85000000000002
 30
0.0
 40
5.0
 50
0.0
 51
90.0
  0
LINE
  5
1AA
  8
DATA
  6
CONTINUOUS
 62
     7
 10
-113.22056000000001
 20
284.82056
 30
0.0
 11
-141.15128000000001
 21
312.75128000000001
 31
0.0
  0
LINE
  5
1AB
  8
DATA
  6
CONTINUOUS
 62
     7
 10
-51.34872
 20
222.94872000000001
 30
0.0
 11
-79.279439999999994
 21
250.87943999999999
 31
0.0
  0
LINE
  5
1AC
  8
DATA
  6
CONTINUOUS
 62
     7
 10
-120.25
 20
267.85000000000002
 30
0.0
 11
-156.25
 21
267.85000000000002
 31
0.0
  0
LINE
  5
1AD
  8
DATA
  6
CONTINUOUS
 62
     7
 10
-36.25
 20
267.85000000000002
 30
0.0
 11
-72.249999999999986
 21
267.85000000000002
 31
0.0
  0
LINE
  5
1AE
  8
DATA
  6
CONTINUOUS
 62
     7
 10
-113.22056000000001
 20
250.87943999999999
 30
0.0
 11
-141.15128000000001
 21
222.94872000000001
 31
0.0
  0
LINE
  5
1AF
  8
DATA
  6
CONTINUOUS
 62
     7
 10
-51.34872
 20
312.75128000000001
 30
0.0
 11
-79.279439999999994
 21
284.82056
 31
0.0
  0
LINE
  5
1B0
  8
DATA
  6
CONTINUOUS
 62
     7
 10
-96.25
 20
291.85000000000002
 30
0.0
 11
-96.25
 21
327.85000000000002
 31
0.0
  0
LINE
  5
1B1
  8
DATA
  6
CONTINUOUS
 62
     7
 10
-96.25
 20
207.84999999999999
 30
0.0
 11
-96.25
 21
243.84999999999999
 31
0.0
  0
LINE
  5
1B2
  8
DATA
  6
CONTINUOUS
 62
     7
 10
52.5
 20
304.69999999999999
 30
0.0
 11
-35.499999999999993
 21
304.69999999999999
 31
0.0
  0
CIRCLE
  5
1B3
  8
DATA
  6
CONTINUOUS
 62
     7
 10
48.0
 20
221.19999999999999
 30
0.0
 40
3.5
  0
CIRCLE
  5
1B4
  8
DATA
  6
CONTINUOUS
 62
     7
 10
-30.999999999999989
 20
221.19999999999999
 30
0.0
 40
3.5
  0
LINE
  5
1B5
  8
DATA
  6
CONTINUOUS
 62
     7
 10
-35.499999999999993
 20
216.69999999999999
 30
0.0
 11
-35.499999999999993
 21
304.69999999999999
 31
0.0
  0
LINE
  5
1B6
  8
DATA
  6
CONTINUOUS
 62
     7
 10
52.5
 20
304.69999999999999
 30
0.0
 11
52.5
 21
216.69999999999999
 31
0.0
  0
LINE
  5
1B7
  8
DATA
  6
CONTINUOUS
 62
     7
 10
52.5
 20
216.69999999999999
 30
0.0
 11
-35.499999999999993
 21
216.69999999999999
 31
0.0
  0
CIRCLE
  5
1B8
  8
DATA
  6
CONTINUOUS
 62
     7
 10
-30.999999999999989
 20
300.69999999999999
 30
0.0
 40
3.5
  0
CIRCLE
  5
1B9
  8
DATA
  6
CONTINUOUS
 62
     7
 10
48.0
 20
300.69999999999999
 30
0.0
 40
3.5
  0
CIRCLE
  5
1BA
  8
DATA
  6
CONTINUOUS
 62
     7
 10
36.0
 20
235.69999999999999
 30
0.0
 40
3.5
  0
CIRCLE
  5
1BB
  8
DATA
  6
CONTINUOUS
 62
     7
 10
36.0
 20
235.69999999999999
 30
0.0
 40
1.5
  0
LINE
  5
1BC
  8
DATA
  6
CONTINUOUS
 62
     7
 10
37.016300000000001
 20
235.279
 30
0.0
 11
37.500099999999989
 21
235.69999999999999
 31
0.0
  0
LINE
  5
1BD
  8
DATA
  6
CONTINUOUS
 62
     7
 10
37.016300000000001
 20
236.12100000000001
 30
0.0
 11
37.500099999999989
 21
235.69999999999999
 31
0.0
  0
LINE
  5
1BE
  8
DATA
  6
CONTINUOUS
 62
     7
 10
36.0
 20
234.19999999999999
 30
0.0
 11
36.420999999999992
 21
234.68379999999999
 31
0.0
  0
LINE
  5
1BF
  8
DATA
  6
CONTINUOUS
 62
     7
 10
36.000099999999989
 20
234.19999999999999
 30
0.0
 11
35.579099999999997
 21
234.68379999999999
 31
0.0
  0
LINE
  5
1C0
  8
DATA
  6
CONTINUOUS
 62
     7
 10
37.060699999999997
 20
234.63929999999999
 30
0.0
 11
37.016300000000001
 21
235.2791
 31
0.0
  0
LINE
  5
1C1
  8
DATA
  6
CONTINUOUS
 62
     7
 10
37.0608
 20
234.63929999999999
 30
0.0
 11
36.420999999999992
 21
234.68369999999999
 31
0.0
  0
LINE
  5
1C2
  8
DATA
  6
CONTINUOUS
 62
     7
 10
34.939399999999992
 20
234.63929999999999
 30
0.0
 11
34.983800000000002
 21
235.2791
 31
0.0
  0
LINE
  5
1C3
  8
DATA
  6
CONTINUOUS
 62
     7
 10
34.93930000000001
 20
234.63929999999999
 30
0.0
 11
35.579099999999997
 21
234.68369999999999
 31
0.0
  0
LINE
  5
1C4
  8
DATA
  6
CONTINUOUS
 62
     7
 10
36.0
 20
237.19999999999999
 30
0.0
 11
36.420999999999992
 21
236.71619999999999
 31
0.0
  0
LINE
  5
1C5
  8
DATA
  6
CONTINUOUS
 62
     7
 10
36.000099999999989
 20
237.19999999999999
 30
0.0
 11
35.579099999999997
 21
236.71619999999999
 31
0.0
  0
LINE
  5
1C6
  8
DATA
  6
CONTINUOUS
 62
     7
 10
37.060699999999997
 20
236.76070000000001
 30
0.0
 11
37.016300000000001
 21
236.12090000000001
 31
0.0
  0
LINE
  5
1C7
  8
DATA
  6
CONTINUOUS
 62
     7
 10
37.0608
 20
236.76070000000001
 30
0.0
 11
36.420999999999992
 21
236.71629999999999
 31
0.0
  0
LINE
  5
1C8
  8
DATA
  6
CONTINUOUS
 62
     7
 10
34.939399999999992
 20
236.76070000000001
 30
0.0
 11
34.983800000000002
 21
236.12090000000001
 31
0.0
  0
LINE
  5
1C9
  8
DATA
  6
CONTINUOUS
 62
     7
 10
34.93930000000001
 20
236.76070000000001
 30
0.0
 11
35.579099999999997
 21
236.71629999999999
 31
0.0
  0
LINE
  5
1CA
  8
DATA
  6
CONTINUOUS
 62
     7
 10
34.983800000000002
 20
235.279
 30
0.0
 11
34.5
 21
235.69999999999999
 31
0.0
  0
LINE
  5
1CB
  8
DATA
  6
CONTINUOUS
 62
     7
 10
34.983800000000002
 20
236.12100000000001
 30
0.0
 11
34.5
 21
235.69999999999999
 31
0.0
  0
CIRCLE
  5
1CC
  8
DATA
  6
CONTINUOUS
 62
     7
 10
-20.499999999999979
 20
235.69999999999999
 30
0.0
 40
3.5
  0
CIRCLE
  5
1CD
  8
DATA
  6
CONTINUOUS
 62
     7
 10
-20.499999999999979
 20
235.69999999999999
 30
0.0
 40
1.5
  0
LINE
  5
1CE
  8
DATA
  6
CONTINUOUS
 62
     7
 10
-19.48370000000001
 20
235.279
 30
0.0
 11
-18.9999
 21
235.69999999999999
 31
0.0
  0
LINE
  5
1CF
  8
DATA
  6
CONTINUOUS
 62
     7
 10
-19.48370000000001
 20
236.12100000000001
 30
0.0
 11
-18.9999
 21
235.69999999999999
 31
0.0
  0
LINE
  5
1D0
  8
DATA
  6
CONTINUOUS
 62
     7
 10
-20.499999999999979
 20
234.19999999999999
 30
0.0
 11
-20.07899999999999
 21
234.68379999999999
 31
0.0
  0
LINE
  5
1D1
  8
DATA
  6
CONTINUOUS
 62
     7
 10
-20.499900000000011
 20
234.19999999999999
 30
0.0
 11
-20.9209
 21
234.68379999999999
 31
0.0
  0
LINE
  5
1D2
  8
DATA
  6
CONTINUOUS
 62
     7
 10
-19.439299999999989
 20
234.63929999999999
 30
0.0
 11
-19.48370000000001
 21
235.2791
 31
0.0
  0
LINE
  5
1D3
  8
DATA
  6
CONTINUOUS
 62
     7
 10
-19.439199999999978
 20
234.63929999999999
 30
0.0
 11
-20.07899999999999
 21
234.68369999999999
 31
0.0
  0
LINE
  5
1D4
  8
DATA
  6
CONTINUOUS
 62
     7
 10
-21.560600000000012
 20
234.63929999999999
 30
0.0
 11
-21.516200000000008
 21
235.2791
 31
0.0
  0
LINE
  5
1D5
  8
DATA
  6
CONTINUOUS
 62
     7
 10
-21.560700000000011
 20
234.63929999999999
 30
0.0
 11
-20.9209
 21
234.68369999999999
 31
0.0
  0
LINE
  5
1D6
  8
DATA
  6
CONTINUOUS
 62
     7
 10
-20.499999999999979
 20
237.19999999999999
 30
0.0
 11
-20.07899999999999
 21
236.71619999999999
 31
0.0
  0
LINE
  5
1D7
  8
DATA
  6
CONTINUOUS
 62
     7
 10
-20.499900000000011
 20
237.19999999999999
 30
0.0
 11
-20.9209
 21
236.71619999999999
 31
0.0
  0
LINE
  5
1D8
  8
DATA
  6
CONTINUOUS
 62
     7
 10
-19.439299999999989
 20
236.76070000000001
 30
0.0
 11
-19.48370000000001
 21
236.12090000000001
 31
0.0
  0
LINE
  5
1D9
  8
DATA
  6
CONTINUOUS
 62
     7
 10
-19.439199999999978
 20
236.76070000000001
 30
0.0
 11
-20.07899999999999
 21
236.71629999999999
 31
0.0
  0
LINE
  5
1DA
  8
DATA
  6
CONTINUOUS
 62
     7
 10
-21.560600000000012
 20
236.76070000000001
 30
0.0
 11
-21.516200000000008
 21
236.12090000000001
 31
0.0
  0
LINE
  5
1DB
  8
DATA
  6
CONTINUOUS
 62
     7
 10
-21.560700000000011
 20
236.76070000000001
 30
0.0
 11
-20.9209
 21
236.71629999999999
 31
0.0
  0
LINE
  5
1DC
  8
DATA
  6
CONTINUOUS
 62
     7
 10
-21.516200000000008
 20
235.279
 30
0.0
 11
-21.999999999999989
 21
235.69999999999999
 31
0.0
  0
LINE
  5
1DD
  8
DATA
  6
CONTINUOUS
 62
     7
 10
-21.516200000000008
 20
236.12100000000001
 30
0.0
 11
-21.999999999999989
 21
235.69999999999999
 31
0.0
  0
LINE
  5
1DE
  8
DATA
  6
CONTINUOUS
 62
     7
 10
32.25
 20
243.19999999999999
 30
0.0
 11
32.25
 21
228.19999999999999
 31
0.0
  0
LINE
  5
1DF
  8
DATA
  6
CONTINUOUS
 62
     7
 10
-16.749999999999979
 20
243.19999999999999
 30
0.0
 11
-16.749999999999979
 21
228.19999999999999
 31
0.0
  0
LINE
  5
1E0
  8
DATA
  6
CONTINUOUS
 62
     7
 10
32.25
 20
243.19999999999999
 30
0.0
 11
-16.749999999999979
 21
243.19999999999999
 31
0.0
  0
LINE
  5
1E1
  8
DATA
  6
CONTINUOUS
 62
     7
 10
32.25
 20
228.19999999999999
 30
0.0
 11
-16.749999999999979
 21
228.19999999999999
 31
0.0
  0
LINE
  5
1E2
  8
DATA
  6
CONTINUOUS
 62
     7
 10
31.0501
 20
243.19999999999999
 30
0.0
 11
31.0501
 21
228.19999999999999
 31
0.0
  0
LINE
  5
1E3
  8
DATA
  6
CONTINUOUS
 62
     7
 10
-15.54999999999999
 20
243.19999999999999
 30
0.0
 11
-15.54999999999999
 21
228.19999999999999
 31
0.0
  0
LINE
  5
1E4
  8
DATA
  6
CONTINUOUS
 62
     7
 10
27.0
 20
253.71899999999999
 30
0.0
 11
32.0
 21
253.71899999999999
 31
0.0
  0
ARC
  5
1E5
  8
DATA
  6
CONTINUOUS
 62
     7
 10
29.5
 20
265.19999999999999
 30
0.0
 40
3.7499920906583242
 50
198.85337036233929
 51
341.14662963766068
  0
ARC
  5
1E6
  8
DATA
  6
CONTINUOUS
 62
     7
 10
29.5
 20
265.19999999999999
 30
0.0
 40
9.7500319635373476
 50
281.83696478895803
 51
258.16303521104192
  0
ARC
  5
1E7
  8
DATA
  6
CONTINUOUS
 62
     7
 10
29.5
 20
265.19999999999999
 30
0.0
 40
11.75003663824076
 50
282.28445495365168
 51
257.71554504634832
  0
ARC
  5
1E8
  8
DATA
  6
CONTINUOUS
 62
     7
 10
29.5
 20
265.19999999999999
 30
0.0
 40
7.9999936499974806
 50
318.5817678775847
 51
311.41823212241542
  0
ARC
  5
1E9
  8
DATA
  6
CONTINUOUS
 62
     7
 10
29.5
 20
265.19999999999999
 30
0.0
 40
3.7499920906583242
 50
18.853370362339291
 51
71.146629637660794
  0
POLYLINE
  5
1EA
  8
DATA
  6
CONTINUOUS
 62
     7
 66
     1
 10
0.0
 20
0.0
 30
0.0
 70
   128
  0
VERTEX
  5
5D4
  8
DATA
  6
CONTINUOUS
 62
     7
 10
24.25
 20
248.94999999999999
 30
0.0
  0
VERTEX
  5
5D5
  8
DATA
  6
CONTINUOUS
 62
     7
 10
24.25
 20
248.9499926758717
 30
0.0
 42
0.2465635496811346
  0
VERTEX
  5
5D6
  8
DATA
  6
CONTINUOUS
 62
     7
 10
24.48369118751544
 20
248.50490607861579
 30
0.0
  0
VERTEX
  5
5D7
  8
DATA
  6
CONTINUOUS
 62
     7
 10
24.483699999999999
 20
248.50489999999999
 30
0.0
  0
VERTEX
  5
5D8
  8
DATA
  6
CONTINUOUS
 62
     7
 10
24.483699999999999
 20
248.50489999999999
 30
0.0
  0
VERTEX
  5
5D9
  8
DATA
  6
CONTINUOUS
 62
     7
 10
24.483699999999999
 20
248.50489999999999
 30
0.0
 42
0.0815615956272419
  0
VERTEX
  5
5DA
  8
DATA
  6
CONTINUOUS
 62
     7
 10
25.787700000000001
 20
247.88929999999999
 30
0.0
  0
VERTEX
  5
5DB
  8
DATA
  6
CONTINUOUS
 62
     7
 10
25.787700000000001
 20
247.88929999999999
 30
0.0
  0
VERTEX
  5
5DC
  8
DATA
  6
CONTINUOUS
 62
     7
 10
25.787700000000001
 20
247.88929999999999
 30
0.0
 42
0.0401472994714115
  0
VERTEX
  5
5DD
  8
DATA
  6
CONTINUOUS
 62
     7
 10
27.3432
 20
247.5772
 30
0.0
  0
VERTEX
  5
5DE
  8
DATA
  6
CONTINUOUS
 62
     7
 10
27.3432
 20
247.5772
 30
0.0
  0
VERTEX
  5
5DF
  8
DATA
  6
CONTINUOUS
 62
     7
 10
27.3432
 20
247.5772
 30
0.0
 42
0.0294652032595147
  0
VERTEX
  5
5E0
  8
DATA
  6
CONTINUOUS
 62
     7
 10
29.5
 20
247.44999999999999
 30
0.0
  0
VERTEX
  5
5E1
  8
DATA
  6
CONTINUOUS
 62
     7
 10
29.5
 20
247.44999999999999
 30
0.0
  0
VERTEX
  5
5E2
  8
DATA
  6
CONTINUOUS
 62
     7
 10
29.5
 20
247.44999999999999
 30
0.0
 42
0.0294625336607083
  0
VERTEX
  5
5E3
  8
DATA
  6
CONTINUOUS
 62
     7
 10
31.65679999999999
 20
247.5772
 30
0.0
  0
VERTEX
  5
5E4
  8
DATA
  6
CONTINUOUS
 62
     7
 10
31.65679999999999
 20
247.5772
 30
0.0
  0
VERTEX
  5
5E5
  8
DATA
  6
CONTINUOUS
 62
     7
 10
31.65679999999999
 20
247.5772
 30
0.0
 42
0.0401473204583675
  0
VERTEX
  5
5E6
  8
DATA
  6
CONTINUOUS
 62
     7
 10
33.212299999999999
 20
247.88929999999999
 30
0.0
  0
VERTEX
  5
5E7
  8
DATA
  6
CONTINUOUS
 62
     7
 10
33.212299999999999
 20
247.88929999999999
 30
0.0
  0
VERTEX
  5
5E8
  8
DATA
  6
CONTINUOUS
 62
     7
 10
33.212299999999999
 20
247.88929999999999
 30
0.0
 42
0.0815737903263996
  0
VERTEX
  5
5E9
  8
DATA
  6
CONTINUOUS
 62
     7
 10
34.516300000000001
 20
248.50489999999999
 30
0.0
  0
VERTEX
  5
5EA
  8
DATA
  6
CONTINUOUS
 62
     7
 10
34.516300000000001
 20
248.50489999999999
 30
0.0
  0
VERTEX
  5
5EB
  8
DATA
  6
CONTINUOUS
 62
     7
 10
34.516308812484567
 20
248.50490607861579
 30
0.0
 42
0.2465635496811491
  0
VERTEX
  5
5EC
  8
DATA
  6
CONTINUOUS
 62
     7
 10
34.75
 20
248.9499926758717
 30
0.0
  0
VERTEX
  5
5ED
  8
DATA
  6
CONTINUOUS
 62
     7
 10
34.75
 20
248.94999999999999
 30
0.0
  0
VERTEX
  5
5EE
  8
DATA
  6
CONTINUOUS
 62
     7
 10
34.75
 20
248.94999999999999
 30
0.0
  0
SEQEND
  5
5EF
  8
DATA
  6
CONTINUOUS
 62
     7
  0
ARC
  5
207
  8
DATA
  6
CONTINUOUS
 62
     7
 10
29.5
 20
265.19999999999999
 30
0.0
 40
10.25001507315965
 50
281.25183096683003
 51
289.96608112443658
  0
LINE
  5
208
  8
DATA
  6
CONTINUOUS
 62
     7
 10
33.0
 20
255.566
 30
0.0
 11
33.0
 21
253.98339999999999
 31
0.0
  0
LINE
  5
209
  8
DATA
  6
CONTINUOUS
 62
     7
 10
31.5
 20
255.6574
 30
0.0
 11
31.5
 21
255.14699999999999
 31
0.0
  0
ARC
  5
20A
  8
DATA
  6
CONTINUOUS
 62
     7
 10
32.75
 20
250.94999999999999
 30
0.0
 40
2.0
 50
0.0
 51
90.0
  0
LINE
  5
20B
  8
DATA
  6
CONTINUOUS
 62
     7
 10
34.75
 20
250.94999999999999
 30
0.0
 11
34.75
 21
248.94999999999999
 31
0.0
  0
ARC
  5
20C
  8
DATA
  6
CONTINUOUS
 62
     7
 10
35.156899999999993
 20
259.54309999999998
 30
0.0
 40
0.4999566481206134
 50
223.20882382995029
 51
46.791176170048537
  0
ARC
  5
20D
  8
DATA
  6
CONTINUOUS
 62
     7
 10
33.75
 20
265.19999999999999
 30
0.0
 40
1.40005024195562
 50
239.94446546620529
 51
120.0555345337946
  0
LINE
  5
20E
  8
DATA
  6
CONTINUOUS
 62
     7
 10
38.5
 20
252.19999999999999
 30
0.0
 11
38.5
 21
255.19999999999999
 31
0.0
  0
LINE
  5
20F
  8
DATA
  6
CONTINUOUS
 62
     7
 10
40.0
 20
253.69999999999999
 30
0.0
 11
37.0
 21
253.69999999999999
 31
0.0
  0
CIRCLE
  5
210
  8
DATA
  6
CONTINUOUS
 62
     7
 10
38.5
 20
253.69999999999999
 30
0.0
 40
2.5
  0
LINE
  5
211
  8
DATA
  6
CONTINUOUS
 62
     7
 10
32.75
 20
252.94999999999999
 30
0.0
 11
32.0
 21
252.94999999999999
 31
0.0
  0
LINE
  5
212
  8
DATA
  6
CONTINUOUS
 62
     7
 10
32.0
 20
253.71899999999999
 30
0.0
 11
32.0
 21
252.94999999999999
 31
0.0
  0
LINE
  5
213
  8
DATA
  6
CONTINUOUS
 62
     7
 10
27.0
 20
253.71899999999999
 30
0.0
 11
27.0
 21
252.94999999999999
 31
0.0
  0
ARC
  5
214
  8
DATA
  6
CONTINUOUS
 62
     7
 10
29.5
 20
265.19999999999999
 30
0.0
 40
10.24997703460841
 50
250.0338950650484
 51
258.74818022920692
  0
LINE
  5
215
  8
DATA
  6
CONTINUOUS
 62
     7
 10
26.0
 20
255.566
 30
0.0
 11
26.0
 21
253.98339999999999
 31
0.0
  0
LINE
  5
216
  8
DATA
  6
CONTINUOUS
 62
     7
 10
27.5
 20
255.6574
 30
0.0
 11
27.5
 21
255.14699999999999
 31
0.0
  0
ARC
  5
217
  8
DATA
  6
CONTINUOUS
 62
     7
 10
26.25
 20
250.94999999999999
 30
0.0
 40
2.0
 50
90.0
 51
180.0
  0
LINE
  5
218
  8
DATA
  6
CONTINUOUS
 62
     7
 10
24.25
 20
250.94999999999999
 30
0.0
 11
24.25
 21
248.94999999999999
 31
0.0
  0
ARC
  5
219
  8
DATA
  6
CONTINUOUS
 62
     7
 10
25.25
 20
265.19999999999999
 30
0.0
 40
1.40005024195562
 50
59.944465466205372
 51
300.05553453379468
  0
LINE
  5
21A
  8
DATA
  6
CONTINUOUS
 62
     7
 10
26.25
 20
252.94999999999999
 30
0.0
 11
27.0
 21
252.94999999999999
 31
0.0
  0
ARC
  5
21B
  8
DATA
  6
CONTINUOUS
 62
     7
 10
29.5
 20
269.44999999999999
 30
0.0
 40
1.400050241955606
 50
329.9444654662064
 51
210.05553453379369
  0
LINE
  5
21C
  8
DATA
  6
CONTINUOUS
 62
     7
 10
22.0
 20
276.69999999999999
 30
0.0
 11
18.999999999999979
 21
276.69999999999999
 31
0.0
  0
ARC
  5
21D
  8
DATA
  6
CONTINUOUS
 62
     7
 10
29.5
 20
265.19999999999999
 30
0.0
 40
3.7499920906583371
 50
108.85337036233921
 51
161.14662963766071
  0
LINE
  5
21E
  8
DATA
  6
CONTINUOUS
 62
     7
 10
20.499999999999979
 20
275.19999999999999
 30
0.0
 11
20.499999999999979
 21
278.19999999999999
 31
0.0
  0
CIRCLE
  5
21F
  8
DATA
  6
CONTINUOUS
 62
     7
 10
20.499999999999979
 20
276.69999999999999
 30
0.0
 40
2.5000000000000142
  0
LINE
  5
220
  8
DATA
  6
CONTINUOUS
 62
     7
 10
-12.99999999999998
 20
253.71899999999999
 30
0.0
 11
-8.0000000000000142
 21
253.71899999999999
 31
0.0
  0
ARC
  5
221
  8
DATA
  6
CONTINUOUS
 62
     7
 10
-10.500000000000011
 20
265.19999999999999
 30
0.0
 40
3.7499920906582971
 50
198.8533703623394
 51
341.14662963766062
  0
ARC
  5
222
  8
DATA
  6
CONTINUOUS
 62
     7
 10
-10.500000000000011
 20
265.19999999999999
 30
0.0
 40
9.7500319635373476
 50
281.83696478895803
 51
258.16303521104209
  0
ARC
  5
223
  8
DATA
  6
CONTINUOUS
 62
     7
 10
-10.500000000000011
 20
265.19999999999999
 30
0.0
 40
11.75003663824076
 50
282.28445495365168
 51
257.7155450463485
  0
ARC
  5
224
  8
DATA
  6
CONTINUOUS
 62
     7
 10
-10.500000000000011
 20
265.19999999999999
 30
0.0
 40
7.9999936499974806
 50
318.5817678775847
 51
311.41823212241547
  0
ARC
  5
225
  8
DATA
  6
CONTINUOUS
 62
     7
 10
-10.500000000000011
 20
265.19999999999999
 30
0.0
 40
3.7499920906583242
 50
18.853370362339291
 51
71.146629637660581
  0
POLYLINE
  5
226
  8
DATA
  6
CONTINUOUS
 62
     7
 66
     1
 10
0.0
 20
0.0
 30
0.0
 70
   128
  0
VERTEX
  5
5F0
  8
DATA
  6
CONTINUOUS
 62
     7
 10
-15.74999999999998
 20
248.94999999999999
 30
0.0
  0
VERTEX
  5
5F1
  8
DATA
  6
CONTINUOUS
 62
     7
 10
-15.74999999999998
 20
248.9499926758717
 30
0.0
 42
0.2465635496811518
  0
VERTEX
  5
5F2
  8
DATA
  6
CONTINUOUS
 62
     7
 10
-15.516308812484549
 20
248.50490607861579
 30
0.0
  0
VERTEX
  5
5F3
  8
DATA
  6
CONTINUOUS
 62
     7
 10
-15.51629999999999
 20
248.50489999999999
 30
0.0
  0
VERTEX
  5
5F4
  8
DATA
  6
CONTINUOUS
 62
     7
 10
-15.51629999999999
 20
248.50489999999999
 30
0.0
  0
VERTEX
  5
5F5
  8
DATA
  6
CONTINUOUS
 62
     7
 10
-15.51629999999999
 20
248.50489999999999
 30
0.0
 42
0.0815615956272446
  0
VERTEX
  5
5F6
  8
DATA
  6
CONTINUOUS
 62
     7
 10
-14.21230000000001
 20
247.88929999999999
 30
0.0
  0
VERTEX
  5
5F7
  8
DATA
  6
CONTINUOUS
 62
     7
 10
-14.21230000000001
 20
247.88929999999999
 30
0.0
  0
VERTEX
  5
5F8
  8
DATA
  6
CONTINUOUS
 62
     7
 10
-14.21230000000001
 20
247.88929999999999
 30
0.0
 42
0.0401472994714092
  0
VERTEX
  5
5F9
  8
DATA
  6
CONTINUOUS
 62
     7
 10
-12.65679999999999
 20
247.5772
 30
0.0
  0
VERTEX
  5
5FA
  8
DATA
  6
CONTINUOUS
 62
     7
 10
-12.65679999999999
 20
247.5772
 30
0.0
  0
VERTEX
  5
5FB
  8
DATA
  6
CONTINUOUS
 62
     7
 10
-12.65679999999999
 20
247.5772
 30
0.0
 42
0.0294652032595147
  0
VERTEX
  5
5FC
  8
DATA
  6
CONTINUOUS
 62
     7
 10
-10.500000000000011
 20
247.44999999999999
 30
0.0
  0
VERTEX
  5
5FD
  8
DATA
  6
CONTINUOUS
 62
     7
 10
-10.500000000000011
 20
247.44999999999999
 30
0.0
  0
VERTEX
  5
5FE
  8
DATA
  6
CONTINUOUS
 62
     7
 10
-10.500000000000011
 20
247.44999999999999
 30
0.0
 42
0.029462533660708
  0
VERTEX
  5
5FF
  8
DATA
  6
CONTINUOUS
 62
     7
 10
-8.3432000000000102
 20
247.5772
 30
0.0
  0
VERTEX
  5
600
  8
DATA
  6
CONTINUOUS
 62
     7
 10
-8.3432000000000102
 20
247.5772
 30
0.0
  0
VERTEX
  5
601
  8
DATA
  6
CONTINUOUS
 62
     7
 10
-8.3432000000000102
 20
247.5772
 30
0.0
 42
0.0401473204583657
  0
VERTEX
  5
602
  8
DATA
  6
CONTINUOUS
 62
     7
 10
-6.7876999999999859
 20
247.88929999999999
 30
0.0
  0
VERTEX
  5
603
  8
DATA
  6
CONTINUOUS
 62
     7
 10
-6.7876999999999859
 20
247.88929999999999
 30
0.0
  0
VERTEX
  5
604
  8
DATA
  6
CONTINUOUS
 62
     7
 10
-6.7876999999999859
 20
247.88929999999999
 30
0.0
 42
0.0815737903264024
  0
VERTEX
  5
605
  8
DATA
  6
CONTINUOUS
 62
     7
 10
-5.4837000000000131
 20
248.50489999999999
 30
0.0
  0
VERTEX
  5
606
  8
DATA
  6
CONTINUOUS
 62
     7
 10
-5.4837000000000131
 20
248.50489999999999
 30
0.0
  0
VERTEX
  5
607
  8
DATA
  6
CONTINUOUS
 62
     7
 10
-5.4836911875154177
 20
248.50490607861579
 30
0.0
 42
0.2465635496811684
  0
VERTEX
  5
608
  8
DATA
  6
CONTINUOUS
 62
     7
 10
-5.2500000000000142
 20
248.9499926758717
 30
0.0
  0
VERTEX
  5
609
  8
DATA
  6
CONTINUOUS
 62
     7
 10
-5.2500000000000142
 20
248.94999999999999
 30
0.0
  0
VERTEX
  5
60A
  8
DATA
  6
CONTINUOUS
 62
     7
 10
-5.2500000000000142
 20
248.94999999999999
 30
0.0
  0
SEQEND
  5
60B
  8
DATA
  6
CONTINUOUS
 62
     7
  0
ARC
  5
243
  8
DATA
  6
CONTINUOUS
 62
     7
 10
-10.500000000000011
 20
265.19999999999999
 30
0.0
 40
10.25001507315965
 50
281.25183096683003
 51
289.96608112443658
  0
LINE
  5
244
  8
DATA
  6
CONTINUOUS
 62
     7
 10
-7.0000000000000142
 20
255.566
 30
0.0
 11
-7.0000000000000142
 21
253.98339999999999
 31
0.0
  0
LINE
  5
245
  8
DATA
  6
CONTINUOUS
 62
     7
 10
-8.5000000000000142
 20
255.6574
 30
0.0
 11
-8.5000000000000142
 21
255.14699999999999
 31
0.0
  0
ARC
  5
246
  8
DATA
  6
CONTINUOUS
 62
     7
 10
-7.2500000000000142
 20
250.94999999999999
 30
0.0
 40
2.0
 50
0.0
 51
90.0
  0
LINE
  5
247
  8
DATA
  6
CONTINUOUS
 62
     7
 10
-5.2500000000000142
 20
250.94999999999999
 30
0.0
 11
-5.2500000000000142
 21
248.94999999999999
 31
0.0
  0
ARC
  5
248
  8
DATA
  6
CONTINUOUS
 62
     7
 10
-4.843100000000006
 20
259.54309999999998
 30
0.0
 40
0.499956648120603
 50
223.2088238299514
 51
46.791176170049702
  0
ARC
  5
249
  8
DATA
  6
CONTINUOUS
 62
     7
 10
-6.2500000000000142
 20
265.19999999999999
 30
0.0
 40
1.40005024195562
 50
239.94446546620529
 51
120.0555345337946
  0
LINE
  5
24A
  8
DATA
  6
CONTINUOUS
 62
     7
 10
-1.500000000000014
 20
252.19999999999999
 30
0.0
 11
-1.500000000000014
 21
255.19999999999999
 31
0.0
  0
LINE
  5
24B
  8
DATA
  6
CONTINUOUS
 62
     7
 10
-0.0000000000000142
 20
253.69999999999999
 30
0.0
 11
-3.0000000000000142
 21
253.69999999999999
 31
0.0
  0
CIRCLE
  5
24C
  8
DATA
  6
CONTINUOUS
 62
     7
 10
-1.500000000000014
 20
253.69999999999999
 30
0.0
 40
2.5
  0
LINE
  5
24D
  8
DATA
  6
CONTINUOUS
 62
     7
 10
-7.2500000000000142
 20
252.94999999999999
 30
0.0
 11
-8.0000000000000142
 21
252.94999999999999
 31
0.0
  0
LINE
  5
24E
  8
DATA
  6
CONTINUOUS
 62
     7
 10
-8.0000000000000142
 20
253.71899999999999
 30
0.0
 11
-8.0000000000000142
 21
252.94999999999999
 31
0.0
  0
LINE
  5
24F
  8
DATA
  6
CONTINUOUS
 62
     7
 10
-12.99999999999998
 20
253.71899999999999
 30
0.0
 11
-12.99999999999998
 21
252.94999999999999
 31
0.0
  0
ARC
  5
250
  8
DATA
  6
CONTINUOUS
 62
     7
 10
-10.500000000000011
 20
265.19999999999999
 30
0.0
 40
10.249977034608399
 50
250.0338950650486
 51
258.74818022920681
  0
LINE
  5
251
  8
DATA
  6
CONTINUOUS
 62
     7
 10
-13.99999999999998
 20
255.566
 30
0.0
 11
-13.99999999999998
 21
253.98339999999999
 31
0.0
  0
LINE
  5
252
  8
DATA
  6
CONTINUOUS
 62
     7
 10
-12.49999999999998
 20
255.6574
 30
0.0
 11
-12.49999999999998
 21
255.14699999999999
 31
0.0
  0
ARC
  5
253
  8
DATA
  6
CONTINUOUS
 62
     7
 10
-13.74999999999998
 20
250.94999999999999
 30
0.0
 40
2.0
 50
90.0
 51
180.0
  0
LINE
  5
254
  8
DATA
  6
CONTINUOUS
 62
     7
 10
-15.74999999999998
 20
250.94999999999999
 30
0.0
 11
-15.74999999999998
 21
248.94999999999999
 31
0.0
  0
ARC
  5
255
  8
DATA
  6
CONTINUOUS
 62
     7
 10
-14.74999999999998
 20
265.19999999999999
 30
0.0
 40
1.40005024195562
 50
59.944465466205372
 51
300.05553453379468
  0
LINE
  5
256
  8
DATA
  6
CONTINUOUS
 62
     7
 10
-13.74999999999998
 20
252.94999999999999
 30
0.0
 11
-12.99999999999998
 21
252.94999999999999
 31
0.0
  0
ARC
  5
257
  8
DATA
  6
CONTINUOUS
 62
     7
 10
-10.500000000000011
 20
269.44999999999999
 30
0.0
 40
1.400050241955618
 50
329.94446546620668
 51
210.05553453379429
  0
LINE
  5
258
  8
DATA
  6
CONTINUOUS
 62
     7
 10
-17.999999999999979
 20
276.69999999999999
 30
0.0
 11
-20.999999999999979
 21
276.69999999999999
 31
0.0
  0
ARC
  5
259
  8
DATA
  6
CONTINUOUS
 62
     7
 10
-10.500000000000011
 20
265.19999999999999
 30
0.0
 40
3.7499920906583322
 50
108.85337036233901
 51
161.14662963766071
  0
LINE
  5
25A
  8
DATA
  6
CONTINUOUS
 62
     7
 10
-19.499999999999979
 20
275.19999999999999
 30
0.0
 11
-19.499999999999979
 21
278.19999999999999
 31
0.0
  0
CIRCLE
  5
25B
  8
DATA
  6
CONTINUOUS
 62
     7
 10
-19.499999999999979
 20
276.69999999999999
 30
0.0
 40
2.5
  0
TEXT
  5
25C
  8
DATA
 62
     7
 10
-27.249999999999989
 20
280.19999999999999
 30
0.0
 40
8.9480324218750003
  1
1
 50
180.0
 41
0.7
  0
TEXT
  5
25D
  8
DATA
 62
     7
 10
49.265799999999999
 20
269.19999999999999
 30
0.0
 40
8.9480324218750003
  1
H
 50
180.0
 41
0.7
  0
TEXT
  5
25E
  8
DATA
 62
     7
 10
49.265799999999999
 20
258.19999999999999
 30
0.0
 40
8.9480324218750003
  1
C
 50
180.0
 41
0.7
  0
TEXT
  5
25F
  8
DATA
 62
     7
 10
-27.249999999999989
 20
269.19999999999999
 30
0.0
 40
8.9480324218750003
  1
H
 50
180.0
 41
0.7
  0
TEXT
  5
260
  8
DATA
 62
     7
 10
-27.249999999999989
 20
258.19999999999999
 30
0.0
 40
8.9480324218750003
  1
C
 50
180.0
 41
0.7
  0
TEXT
  5
261
  8
DATA
 62
     7
 10
49.265799999999999
 20
280.19999999999999
 30
0.0
 40
8.9480324218750003
  1
2
 50
180.0
 41
0.7
  0
TEXT
  5
262
  8
DATA
 62
     7
 10
27.945799999999991
 20
225.19999999999999
 30
0.0
 40
4.4739777343749987
  1
+
 50
180.0
 41
0.7
  0
TEXT
  5
263
  8
DATA
 62
     7
 10
18.445799999999998
 20
225.19999999999999
 30
0.0
 40
4.4739777343749987
  1
-
 50
180.0
 41
0.7
  0
TEXT
  5
264
  8
DATA
 62
     7
 10
-0.5541999999999945
 20
225.19999999999999
 30
0.0
 40
4.4739777343749987
  1
-
 50
180.0
 41
0.7
  0
TEXT
  5
265
  8
DATA
 62
     7
 10
-10.054199999999989
 20
225.19999999999999
 30
0.0
 40
4.4739777343749987
  1
+
 50
180.0
 41
0.7
  0
LINE
  5
266
  8
DATA
  6
CONTINUOUS
 62
     7
 10
8.6499999999999897
 20
225.19999999999999
 30
0.0
 11
6.8500000000000076
 21
225.19999999999999
 31
0.0
  0
LINE
  5
267
  8
DATA
  6
CONTINUOUS
 62
     7
 10
8.9500000000000028
 20
224.40000000000001
 30
0.0
 11
6.5499999999999972
 21
224.40000000000001
 31
0.0
  0
LINE
  5
268
  8
DATA
  6
CONTINUOUS
 62
     7
 10
9.249999999999984
 20
223.59999999999999
 30
0.0
 11
6.2499999999999849
 21
223.59999999999999
 31
0.0
  0
LINE
  5
269
  8
DATA
  6
CONTINUOUS
 62
     7
 10
7.7499999999999867
 20
221.19999999999999
 30
0.0
 11
7.7499999999999867
 21
223.59999999999999
 31
0.0
  0
TEXT
  5
26A
  8
DATA
 62
     7
 10
36.884399999999999
 20
299.6748
 30
0.0
 40
3.5791667968750001
  1
PIN 2 HOT
 50
180.0
 41
0.7
  0
LINE
  5
26B
  8
DATA
  6
CONTINUOUS
 62
     7
 10
-5.9899999999999931
 20
243.19999999999999
 30
0.0
 11
-5.9899999999999931
 21
228.19999999999999
 31
0.0
  0
LINE
  5
26C
  8
DATA
  6
CONTINUOUS
 62
     7
 10
3.5700000000000069
 20
243.19999999999999
 30
0.0
 11
3.5700000000000069
 21
228.19999999999999
 31
0.0
  0
LINE
  5
26D
  8
DATA
  6
CONTINUOUS
 62
     7
 10
2.3699999999999899
 20
243.19999999999999
 30
0.0
 11
2.3699999999999899
 21
228.19999999999999
 31
0.0
  0
LINE
  5
26E
  8
DATA
  6
CONTINUOUS
 62
     7
 10
13.13000000000001
 20
243.19999999999999
 30
0.0
 11
13.13000000000001
 21
228.19999999999999
 31
0.0
  0
LINE
  5
26F
  8
DATA
  6
CONTINUOUS
 62
     7
 10
11.930099999999991
 20
243.19999999999999
 30
0.0
 11
11.930099999999991
 21
228.19999999999999
 31
0.0
  0
LINE
  5
270
  8
DATA
  6
CONTINUOUS
 62
     7
 10
22.690000000000001
 20
243.19999999999999
 30
0.0
 11
22.690000000000001
 21
228.19999999999999
 31
0.0
  0
LINE
  5
271
  8
DATA
  6
CONTINUOUS
 62
     7
 10
21.489999999999998
 20
243.19999999999999
 30
0.0
 11
21.489999999999998
 21
228.19999999999999
 31
0.0
  0
CIRCLE
  5
272
  8
DATA
  6
CONTINUOUS
 62
     7
 10
-11.36999999999999
 20
235.69999999999999
 30
0.0
 40
3.5
  0
LINE
  5
273
  8
DATA
  6
CONTINUOUS
 62
     7
 10
-11.36999999999999
 20
232.19999999999999
 30
0.0
 11
-11.36999999999999
 21
239.19999999999999
 31
0.0
  0
LINE
  5
274
  8
DATA
  6
CONTINUOUS
 62
     7
 10
-9.3699999999999903
 20
235.69999999999999
 30
0.0
 11
-13.36999999999999
 21
235.69999999999999
 31
0.0
  0
CIRCLE
  5
275
  8
DATA
  6
CONTINUOUS
 62
     7
 10
-1.8099999999999881
 20
235.69999999999999
 30
0.0
 40
3.5
  0
LINE
  5
276
  8
DATA
  6
CONTINUOUS
 62
     7
 10
-1.8099999999999881
 20
232.19999999999999
 30
0.0
 11
-1.8099999999999881
 21
239.19999999999999
 31
0.0
  0
LINE
  5
277
  8
DATA
  6
CONTINUOUS
 62
     7
 10
0.1900000000000119
 20
235.69999999999999
 30
0.0
 11
-3.8099999999999881
 21
235.69999999999999
 31
0.0
  0
CIRCLE
  5
278
  8
DATA
  6
CONTINUOUS
 62
     7
 10
7.7499999999999867
 20
235.69999999999999
 30
0.0
 40
3.5
  0
LINE
  5
279
  8
DATA
  6
CONTINUOUS
 62
     7
 10
7.7499999999999867
 20
232.19999999999999
 30
0.0
 11
7.7499999999999867
 21
239.19999999999999
 31
0.0
  0
LINE
  5
27A
  8
DATA
  6
CONTINUOUS
 62
     7
 10
9.749999999999984
 20
235.69999999999999
 30
0.0
 11
5.7499999999999849
 21
235.69999999999999
 31
0.0
  0
CIRCLE
  5
27B
  8
DATA
  6
CONTINUOUS
 62
     7
 10
17.310099999999991
 20
235.69999999999999
 30
0.0
 40
3.5
  0
LINE
  5
27C
  8
DATA
  6
CONTINUOUS
 62
     7
 10
17.310099999999991
 20
232.19999999999999
 30
0.0
 11
17.310099999999991
 21
239.19999999999999
 31
0.0
  0
LINE
  5
27D
  8
DATA
  6
CONTINUOUS
 62
     7
 10
19.310099999999991
 20
235.69999999999999
 30
0.0
 11
15.31009999999999
 21
235.69999999999999
 31
0.0
  0
CIRCLE
  5
27E
  8
DATA
  6
CONTINUOUS
 62
     7
 10
26.86999999999999
 20
235.69999999999999
 30
0.0
 40
3.5
  0
LINE
  5
27F
  8
DATA
  6
CONTINUOUS
 62
     7
 10
26.86999999999999
 20
232.19999999999999
 30
0.0
 11
26.86999999999999
 21
239.19999999999999
 31
0.0
  0
LINE
  5
280
  8
DATA
  6
CONTINUOUS
 62
     7
 10
28.86999999999999
 20
235.69999999999999
 30
0.0
 11
24.86999999999999
 21
235.69999999999999
 31
0.0
  0
LINE
  5
281
  8
DATA
  6
CONTINUOUS
 62
     7
 10
-7.1899000000000077
 20
243.19999999999999
 30
0.0
 11
-7.1899000000000077
 21
228.19999999999999
 31
0.0
  0
LINE
  5
282
  8
DATA
  6
CONTINUOUS
 62
     7
 10
50.0
 20
221.19999999999999
 30
0.0
 11
46.0
 21
221.19999999999999
 31
0.0
  0
LINE
  5
283
  8
DATA
  6
CONTINUOUS
 62
     7
 10
48.0
 20
223.19999999999999
 30
0.0
 11
48.0
 21
219.19999999999999
 31
0.0
  0
LINE
  5
284
  8
DATA
  6
CONTINUOUS
 62
     7
 10
-28.999999999999979
 20
221.19999999999999
 30
0.0
 11
-32.999999999999993
 21
221.19999999999999
 31
0.0
  0
LINE
  5
285
  8
DATA
  6
CONTINUOUS
 62
     7
 10
-30.999999999999989
 20
223.19999999999999
 30
0.0
 11
-30.999999999999989
 21
219.19999999999999
 31
0.0
  0
LINE
  5
286
  8
DATA
  6
CONTINUOUS
 62
     7
 10
-28.999999999999979
 20
300.69999999999999
 30
0.0
 11
-32.999999999999993
 21
300.69999999999999
 31
0.0
  0
LINE
  5
287
  8
DATA
  6
CONTINUOUS
 62
     7
 10
-30.999999999999989
 20
302.69999999999999
 30
0.0
 11
-30.999999999999989
 21
298.69999999999999
 31
0.0
  0
LINE
  5
288
  8
DATA
  6
CONTINUOUS
 62
     7
 10
50.0
 20
300.69999999999999
 30
0.0
 11
46.0
 21
300.69999999999999
 31
0.0
  0
LINE
  5
289
  8
DATA
  6
CONTINUOUS
 62
     7
 10
48.0
 20
302.69999999999999
 30
0.0
 11
48.0
 21
298.69999999999999
 31
0.0
  0
TEXT
  5
28A
  8
DATA
 62
     7
 10
-7.733760000000002
 20
326.07541000000009
 30
0.0
 40
2.0360488671875001
  1
MODE
 50
180.0
 41
0.7
  0
LINE
  5
28B
  8
DATA
  6
CONTINUOUS
 62
     7
 10
35.25
 20
319.19999999999999
 30
0.0
 11
35.25
 21
306.20620000000002
 31
0.0
  0
LINE
  5
28C
  8
DATA
  6
CONTINUOUS
 62
     7
 10
22.25
 20
319.19999999999999
 30
0.0
 11
22.25
 21
306.20620000000002
 31
0.0
  0
LINE
  5
28D
  8
DATA
  6
CONTINUOUS
 62
     7
 10
35.25
 20
306.20620000000002
 30
0.0
 11
22.25
 21
306.20620000000002
 31
0.0
  0
LINE
  5
28E
  8
DATA
  6
CONTINUOUS
 62
     7
 10
23.68330000000001
 20
310.45580000000001
 30
0.0
 11
23.68330000000001
 21
312.71680000000009
 31
0.0
  0
LINE
  5
28F
  8
DATA
  6
CONTINUOUS
 62
     7
 10
24.445900000000002
 20
310.45580000000001
 30
0.0
 11
23.68330000000001
 21
310.45580000000001
 31
0.0
  0
LINE
  5
290
  8
DATA
  6
CONTINUOUS
 62
     7
 10
24.446000000000002
 20
308.65789999999998
 30
0.0
 11
24.446000000000002
 21
310.45569999999998
 31
0.0
  0
LINE
  5
291
  8
DATA
  6
CONTINUOUS
 62
     7
 10
25.562899999999999
 20
308.65789999999998
 30
0.0
 11
24.445900000000002
 21
308.65789999999998
 31
0.0
  0
LINE
  5
292
  8
DATA
  6
CONTINUOUS
 62
     7
 10
25.562899999999999
 20
307.81349999999998
 30
0.0
 11
25.562899999999999
 21
308.65789999999998
 31
0.0
  0
LINE
  5
293
  8
DATA
  6
CONTINUOUS
 62
     7
 10
31.8827
 20
307.81349999999998
 30
0.0
 11
25.562899999999999
 21
307.81349999999998
 31
0.0
  0
LINE
  5
294
  8
DATA
  6
CONTINUOUS
 62
     7
 10
31.8827
 20
308.65789999999998
 30
0.0
 11
31.8827
 21
307.81349999999998
 31
0.0
  0
LINE
  5
295
  8
DATA
  6
CONTINUOUS
 62
     7
 10
32.99969999999999
 20
308.65789999999998
 30
0.0
 11
31.8827
 21
308.65789999999998
 31
0.0
  0
LINE
  5
296
  8
DATA
  6
CONTINUOUS
 62
     7
 10
32.99969999999999
 20
310.45569999999998
 30
0.0
 11
32.99969999999999
 21
308.65789999999998
 31
0.0
  0
LINE
  5
297
  8
DATA
  6
CONTINUOUS
 62
     7
 10
33.816800000000001
 20
310.45580000000001
 30
0.0
 11
32.999600000000001
 21
310.45580000000001
 31
0.0
  0
LINE
  5
298
  8
DATA
  6
CONTINUOUS
 62
     7
 10
33.816800000000001
 20
312.71680000000009
 30
0.0
 11
33.816800000000001
 21
310.45580000000001
 31
0.0
  0
LINE
  5
299
  8
DATA
  6
CONTINUOUS
 62
     7
 10
32.999600000000001
 20
312.71680000000009
 30
0.0
 11
33.816800000000001
 21
312.71680000000009
 31
0.0
  0
LINE
  5
29A
  8
DATA
  6
CONTINUOUS
 62
     7
 10
32.99969999999999
 20
315.30450000000002
 30
0.0
 11
32.99969999999999
 21
312.7167
 31
0.0
  0
LINE
  5
29B
  8
DATA
  6
CONTINUOUS
 62
     7
 10
31.8827
 20
315.30450000000002
 30
0.0
 11
32.99969999999999
 21
315.30450000000002
 31
0.0
  0
LINE
  5
29C
  8
DATA
  6
CONTINUOUS
 62
     7
 10
31.8827
 20
316.14890000000008
 30
0.0
 11
31.8827
 21
315.30450000000002
 31
0.0
  0
LINE
  5
29D
  8
DATA
  6
CONTINUOUS
 62
     7
 10
30.275399999999991
 20
316.149
 30
0.0
 11
31.88280000000001
 21
316.149
 31
0.0
  0
LINE
  5
29E
  8
DATA
  6
CONTINUOUS
 62
     7
 10
30.275399999999991
 20
316.14890000000008
 30
0.0
 11
30.275399999999991
 21
317.59269999999998
 31
0.0
  0
LINE
  5
29F
  8
DATA
  6
CONTINUOUS
 62
     7
 10
27.224599999999999
 20
317.59269999999998
 30
0.0
 11
30.275399999999991
 21
317.59269999999998
 31
0.0
  0
LINE
  5
2A0
  8
DATA
  6
CONTINUOUS
 62
     7
 10
27.224699999999999
 20
316.14890000000008
 30
0.0
 11
27.224699999999999
 21
317.59269999999998
 31
0.0
  0
LINE
  5
2A1
  8
DATA
  6
CONTINUOUS
 62
     7
 10
25.562899999999999
 20
316.149
 30
0.0
 11
27.224699999999999
 21
316.149
 31
0.0
  0
LINE
  5
2A2
  8
DATA
  6
CONTINUOUS
 62
     7
 10
25.562899999999999
 20
315.30450000000002
 30
0.0
 11
25.562899999999999
 21
316.14890000000008
 31
0.0
  0
LINE
  5
2A3
  8
DATA
  6
CONTINUOUS
 62
     7
 10
24.445900000000002
 20
315.30450000000002
 30
0.0
 11
25.562899999999999
 21
315.30450000000002
 31
0.0
  0
LINE
  5
2A4
  8
DATA
  6
CONTINUOUS
 62
     7
 10
24.446000000000002
 20
312.7167
 30
0.0
 11
24.446000000000002
 21
315.30450000000002
 31
0.0
  0
LINE
  5
2A5
  8
DATA
  6
CONTINUOUS
 62
     7
 10
23.68330000000001
 20
312.71680000000009
 30
0.0
 11
24.445900000000002
 21
312.71680000000009
 31
0.0
  0
LINE
  5
2A6
  8
DATA
  6
CONTINUOUS
 62
     7
 10
35.25
 20
319.19999999999999
 30
0.0
 11
22.25
 21
319.19999999999999
 31
0.0
  0
LINE
  5
2A7
  8
DATA
  6
CONTINUOUS
 62
     7
 10
30.711400000000001
 20
309.26679999999999
 30
0.0
 11
30.711400000000001
 21
308.26679999999999
 31
0.0
  0
LINE
  5
2A8
  8
DATA
  6
CONTINUOUS
 62
     7
 10
26.761399999999998
 20
309.26679999999999
 30
0.0
 11
26.761399999999998
 21
308.26679999999999
 31
0.0
  0
LINE
  5
2A9
  8
DATA
  6
CONTINUOUS
 62
     7
 10
28.0962
 20
309.26679999999999
 30
0.0
 11
28.0962
 21
308.26679999999999
 31
0.0
  0
LINE
  5
2AA
  8
DATA
  6
CONTINUOUS
 62
     7
 10
29.4039
 20
309.26679999999999
 30
0.0
 11
29.4039
 21
308.26679999999999
 31
0.0
  0
TEXT
  5
2AB
  8
DATA
 62
     7
 10
20.649999999999991
 20
310.06198999999998
 30
0.0
 40
4.0721054296875003
  1
FAULT
 50
180.0
 41
0.7
  0
TEXT
  5
2AC
  8
DATA
 62
     7
 10
-8.0495199999999851
 20
316.77663000000001
 30
0.0
 40
2.0360488671875001
  1
STEREO
 50
225.0
 41
0.7
  0
LINE
  5
2AD
  8
DATA
  6
CONTINUOUS
 62
     7
 10
-4.7500000000000142
 20
319.19999999999999
 30
0.0
 11
-14.74999999999998
 21
319.19999999999999
 31
0.0
  0
LINE
  5
2AE
  8
DATA
  6
CONTINUOUS
 62
     7
 10
-4.7500000000000142
 20
322.19999999999999
 30
0.0
 11
-14.74999999999998
 21
322.19999999999999
 31
0.0
  0
LINE
  5
2AF
  8
DATA
  6
CONTINUOUS
 62
     7
 10
-4.7500000000000142
 20
322.19999999999999
 30
0.0
 11
-4.7500000000000142
 21
319.19999999999999
 31
0.0
  0
LINE
  5
2B0
  8
DATA
  6
CONTINUOUS
 62
     7
 10
-7.7500000000000142
 20
321.69999999999999
 30
0.0
 11
-7.7500000000000142
 21
319.69999999999999
 31
0.0
  0
LINE
  5
2B1
  8
DATA
  6
CONTINUOUS
 62
     7
 10
-7.7500000000000142
 20
319.69999999999999
 30
0.0
 11
-9.7500000000000142
 21
319.69999999999999
 31
0.0
  0
LINE
  5
2B2
  8
DATA
  6
CONTINUOUS
 62
     7
 10
-7.7500000000000142
 20
321.69999999999999
 30
0.0
 11
-9.7500000000000142
 21
321.69999999999999
 31
0.0
  0
LINE
  5
2B3
  8
DATA
  6
CONTINUOUS
 62
     7
 10
-9.7500000000000142
 20
321.69999999999999
 30
0.0
 11
-9.7500000000000142
 21
319.69999999999999
 31
0.0
  0
LINE
  5
2B4
  8
DATA
  6
CONTINUOUS
 62
     7
 10
-8.2500000000000142
 20
321.69999999999999
 30
0.0
 11
-8.2500000000000142
 21
319.69999999999999
 31
0.0
  0
LINE
  5
2B5
  8
DATA
  6
CONTINUOUS
 62
     7
 10
-8.7500000000000142
 20
321.69999999999999
 30
0.0
 11
-8.7500000000000142
 21
319.69999999999999
 31
0.0
  0
LINE
  5
2B6
  8
DATA
  6
CONTINUOUS
 62
     7
 10
-9.2500000000000142
 20
321.69999999999999
 30
0.0
 11
-9.2500000000000142
 21
319.69999999999999
 31
0.0
  0
LINE
  5
2B7
  8
DATA
  6
CONTINUOUS
 62
     7
 10
-14.74999999999998
 20
322.19999999999999
 30
0.0
 11
-14.74999999999998
 21
319.19999999999999
 31
0.0
  0
LINE
  5
2B8
  8
DATA
  6
CONTINUOUS
 62
     7
 10
-9.7500000000000142
 20
319.19999999999999
 30
0.0
 11
-9.7500000000000142
 21
317.19999999999999
 31
0.0
  0
LINE
  5
2B9
  8
DATA
  6
CONTINUOUS
 62
     7
 10
-16.821069999999999
 20
310.12893000000003
 30
0.0
 11
-9.7500000000000142
 21
317.19999999999999
 31
0.0
  0
LINE
  5
2BA
  8
DATA
  6
CONTINUOUS
 62
     7
 10
-18.749999999999979
 20
319.19999999999999
 30
0.0
 11
-28.749999999999989
 21
319.19999999999999
 31
0.0
  0
LINE
  5
2BB
  8
DATA
  6
CONTINUOUS
 62
     7
 10
-18.749999999999979
 20
322.19999999999999
 30
0.0
 11
-28.749999999999989
 21
322.19999999999999
 31
0.0
  0
LINE
  5
2BC
  8
DATA
  6
CONTINUOUS
 62
     7
 10
-18.749999999999979
 20
322.19999999999999
 30
0.0
 11
-18.749999999999979
 21
319.19999999999999
 31
0.0
  0
LINE
  5
2BD
  8
DATA
  6
CONTINUOUS
 62
     7
 10
-21.749999999999979
 20
321.69999999999999
 30
0.0
 11
-21.749999999999979
 21
319.69999999999999
 31
0.0
  0
LINE
  5
2BE
  8
DATA
  6
CONTINUOUS
 62
     7
 10
-21.749999999999979
 20
319.69999999999999
 30
0.0
 11
-23.749999999999989
 21
319.69999999999999
 31
0.0
  0
LINE
  5
2BF
  8
DATA
  6
CONTINUOUS
 62
     7
 10
-21.749999999999979
 20
321.69999999999999
 30
0.0
 11
-23.749999999999989
 21
321.69999999999999
 31
0.0
  0
LINE
  5
2C0
  8
DATA
  6
CONTINUOUS
 62
     7
 10
-23.749999999999989
 20
321.69999999999999
 30
0.0
 11
-23.749999999999989
 21
319.69999999999999
 31
0.0
  0
LINE
  5
2C1
  8
DATA
  6
CONTINUOUS
 62
     7
 10
-22.249999999999989
 20
321.69999999999999
 30
0.0
 11
-22.249999999999989
 21
319.69999999999999
 31
0.0
  0
LINE
  5
2C2
  8
DATA
  6
CONTINUOUS
 62
     7
 10
-22.749999999999989
 20
321.69999999999999
 30
0.0
 11
-22.749999999999989
 21
319.69999999999999
 31
0.0
  0
LINE
  5
2C3
  8
DATA
  6
CONTINUOUS
 62
     7
 10
-23.249999999999989
 20
321.69999999999999
 30
0.0
 11
-23.249999999999989
 21
319.69999999999999
 31
0.0
  0
LINE
  5
2C4
  8
DATA
  6
CONTINUOUS
 62
     7
 10
-28.749999999999989
 20
322.19999999999999
 30
0.0
 11
-28.749999999999989
 21
319.19999999999999
 31
0.0
  0
LINE
  5
2C5
  8
DATA
  6
CONTINUOUS
 62
     7
 10
-23.749999999999989
 20
319.19999999999999
 30
0.0
 11
-23.749999999999989
 21
317.19999999999999
 31
0.0
  0
LINE
  5
2C6
  8
DATA
  6
CONTINUOUS
 62
     7
 10
-32.94239000000001
 20
308.00761
 30
0.0
 11
-23.749999999999989
 21
317.19999999999999
 31
0.0
  0
TEXT
  5
2C7
  8
DATA
 62
     7
 10
-15.24952
 20
316.77663000000001
 30
0.0
 40
2.0360488671875001
  1
BRIDGE
 50
225.0
 41
0.7
  0
TEXT
  5
2C8
  8
DATA
 62
     7
 10
-16.473969999999991
 20
326.07541000000009
 30
0.0
 40
2.0360488671875001
  1
SENSITIVITY
 50
180.0
 41
0.7
  0
TEXT
  5
2C9
  8
DATA
 62
     7
 10
-22.04951999999999
 20
316.77663000000001
 30
0.0
 40
2.0360488671875001
  1
1.4V
 50
225.0
 41
0.7
  0
TEXT
  5
2CA
  8
DATA
 62
     7
 10
-29.249520000000011
 20
316.77663000000001
 30
0.0
 40
2.0360488671875001
  1
26dB
 50
225.0
 41
0.7
  0
LINE
  5
2CB
  8
DATA
  6
CONTINUOUS
 62
     7
 10
-170.25
 20
206.5
 30
0.0
 11
-170.25
 21
251.5
 31
0.0
  0
LINE
  5
2CC
  8
DATA
  6
CONTINUOUS
 62
     7
 10
-254.25
 20
206.5
 30
0.0
 11
-254.25
 21
251.5
 31
0.0
  0
LINE
  5
2CD
  8
DATA
  6
CONTINUOUS
 62
     7
 10
-254.25
 20
251.5
 30
0.0
 11
-170.25
 21
251.5
 31
0.0
  0
CIRCLE
  5
2CE
  8
DATA
  6
CONTINUOUS
 62
     7
 10
-249.75
 20
208.19999999999999
 30
0.0
 40
1.5
  0
LINE
  5
2CF
  8
DATA
  6
CONTINUOUS
 62
     7
 10
-248.6893
 20
209.26070000000001
 30
0.0
 11
-249.32910000000001
 21
209.21629999999999
 31
0.0
  0
LINE
  5
2D0
  8
DATA
  6
CONTINUOUS
 62
     7
 10
-248.68940000000001
 20
209.26070000000001
 30
0.0
 11
-248.7338
 21
208.62090000000001
 31
0.0
  0
LINE
  5
2D1
  8
DATA
  6
CONTINUOUS
 62
     7
 10
-248.68940000000001
 20
207.13929999999999
 30
0.0
 11
-248.7338
 21
207.7791
 31
0.0
  0
LINE
  5
2D2
  8
DATA
  6
CONTINUOUS
 62
     7
 10
-248.7338
 20
208.62100000000001
 30
0.0
 11
-248.25
 21
208.19999999999999
 31
0.0
  0
LINE
  5
2D3
  8
DATA
  6
CONTINUOUS
 62
     7
 10
-248.7338
 20
207.779
 30
0.0
 11
-248.25
 21
208.19999999999999
 31
0.0
  0
LINE
  5
2D4
  8
DATA
  6
CONTINUOUS
 62
     7
 10
-250.7663
 20
208.62100000000001
 30
0.0
 11
-251.2501
 21
208.19999999999999
 31
0.0
  0
LINE
  5
2D5
  8
DATA
  6
CONTINUOUS
 62
     7
 10
-250.7663
 20
207.779
 30
0.0
 11
-251.2501
 21
208.19999999999999
 31
0.0
  0
LINE
  5
2D6
  8
DATA
  6
CONTINUOUS
 62
     7
 10
-249.75
 20
209.69999999999999
 30
0.0
 11
-250.17099999999999
 21
209.21619999999999
 31
0.0
  0
LINE
  5
2D7
  8
DATA
  6
CONTINUOUS
 62
     7
 10
-249.7501
 20
209.69999999999999
 30
0.0
 11
-249.32910000000001
 21
209.21619999999999
 31
0.0
  0
LINE
  5
2D8
  8
DATA
  6
CONTINUOUS
 62
     7
 10
-250.8107
 20
209.26070000000001
 30
0.0
 11
-250.7663
 21
208.62090000000001
 31
0.0
  0
LINE
  5
2D9
  8
DATA
  6
CONTINUOUS
 62
     7
 10
-250.8108
 20
209.26070000000001
 30
0.0
 11
-250.17099999999999
 21
209.21629999999999
 31
0.0
  0
LINE
  5
2DA
  8
DATA
  6
CONTINUOUS
 62
     7
 10
-250.8107
 20
207.13929999999999
 30
0.0
 11
-250.7663
 21
207.7791
 31
0.0
  0
CIRCLE
  5
2DB
  8
DATA
  6
CONTINUOUS
 62
     7
 10
-174.74999999999989
 20
246.19999999999999
 30
0.0
 40
3.5
  0
CIRCLE
  5
2DC
  8
DATA
  6
CONTINUOUS
 62
     7
 10
-174.74999999999989
 20
246.19999999999999
 30
0.0
 40
1.5
  0
LINE
  5
2DD
  8
DATA
  6
CONTINUOUS
 62
     7
 10
-173.6893
 20
247.26070000000001
 30
0.0
 11
-174.3290999999999
 21
247.21629999999999
 31
0.0
  0
LINE
  5
2DE
  8
DATA
  6
CONTINUOUS
 62
     7
 10
-173.6893
 20
245.13929999999999
 30
0.0
 11
-174.3290999999999
 21
245.18369999999999
 31
0.0
  0
LINE
  5
2DF
  8
DATA
  6
CONTINUOUS
 62
     7
 10
-173.68939999999989
 20
247.26070000000001
 30
0.0
 11
-173.7338
 21
246.62090000000001
 31
0.0
  0
LINE
  5
2E0
  8
DATA
  6
CONTINUOUS
 62
     7
 10
-173.68939999999989
 20
245.13929999999999
 30
0.0
 11
-173.7338
 21
245.7791
 31
0.0
  0
LINE
  5
2E1
  8
DATA
  6
CONTINUOUS
 62
     7
 10
-173.7338
 20
246.62100000000001
 30
0.0
 11
-173.25
 21
246.19999999999999
 31
0.0
  0
LINE
  5
2E2
  8
DATA
  6
CONTINUOUS
 62
     7
 10
-173.7338
 20
245.779
 30
0.0
 11
-173.25
 21
246.19999999999999
 31
0.0
  0
LINE
  5
2E3
  8
DATA
  6
CONTINUOUS
 62
     7
 10
-175.76629999999989
 20
246.62100000000001
 30
0.0
 11
-176.2501
 21
246.19999999999999
 31
0.0
  0
LINE
  5
2E4
  8
DATA
  6
CONTINUOUS
 62
     7
 10
-175.76629999999989
 20
245.779
 30
0.0
 11
-176.2501
 21
246.19999999999999
 31
0.0
  0
LINE
  5
2E5
  8
DATA
  6
CONTINUOUS
 62
     7
 10
-174.74999999999989
 20
247.69999999999999
 30
0.0
 11
-175.17099999999999
 21
247.21619999999999
 31
0.0
  0
LINE
  5
2E6
  8
DATA
  6
CONTINUOUS
 62
     7
 10
-174.75009999999989
 20
247.69999999999999
 30
0.0
 11
-174.3290999999999
 21
247.21619999999999
 31
0.0
  0
LINE
  5
2E7
  8
DATA
  6
CONTINUOUS
 62
     7
 10
-175.8107
 20
247.26070000000001
 30
0.0
 11
-175.76629999999989
 21
246.62090000000001
 31
0.0
  0
LINE
  5
2E8
  8
DATA
  6
CONTINUOUS
 62
     7
 10
-175.8108
 20
247.26070000000001
 30
0.0
 11
-175.17099999999999
 21
247.21629999999999
 31
0.0
  0
LINE
  5
2E9
  8
DATA
  6
CONTINUOUS
 62
     7
 10
-174.74999999999989
 20
244.69999999999999
 30
0.0
 11
-175.17099999999999
 21
245.18379999999999
 31
0.0
  0
LINE
  5
2EA
  8
DATA
  6
CONTINUOUS
 62
     7
 10
-174.75009999999989
 20
244.69999999999999
 30
0.0
 11
-174.3290999999999
 21
245.18379999999999
 31
0.0
  0
LINE
  5
2EB
  8
DATA
  6
CONTINUOUS
 62
     7
 10
-175.8107
 20
245.13929999999999
 30
0.0
 11
-175.76629999999989
 21
245.7791
 31
0.0
  0
LINE
  5
2EC
  8
DATA
  6
CONTINUOUS
 62
     7
 10
-175.8108
 20
245.13929999999999
 30
0.0
 11
-175.17099999999999
 21
245.18369999999999
 31
0.0
  0
LINE
  5
2ED
  8
DATA
  6
CONTINUOUS
 62
     7
 10
-205.8408
 20
238.99467433777451
 30
0.0
 11
-209.5908
 21
238.99467433777451
 31
0.0
  0
LINE
  5
2EE
  8
DATA
  6
CONTINUOUS
 62
     7
 10
-207.7158
 20
240.86967433777451
 30
0.0
 11
-207.7158
 21
237.1196743377744
 31
0.0
  0
LINE
  5
2EF
  8
DATA
  6
CONTINUOUS
 62
     7
 10
-196.34080000000009
 20
238.99467433777451
 30
0.0
 11
-200.09080000000009
 21
238.99467433777451
 31
0.0
  0
TEXT
  5
2F0
  8
DATA
 62
     7
 10
-197.39827999999989
 20
215.83982875429831
 30
0.0
 40
4.0721054296875003
  1
CH-2
 50
180.0
 41
0.7
 11
-197.39827999999989
 21
211.76772332461081
 31
0.0
 73
     3
  0
LINE
  5
2F1
  8
DATA
  6
CONTINUOUS
 62
     7
 10
-218.96499999999989
 20
238.99467433777451
 30
0.0
 11
-215.21499999999989
 21
238.99467433777451
 31
0.0
  0
LINE
  5
2F2
  8
DATA
  6
CONTINUOUS
 62
     7
 10
-217.08999999999989
 20
240.86967433777451
 30
0.0
 11
-217.08999999999989
 21
237.1196743377744
 31
0.0
  0
LINE
  5
2F3
  8
DATA
  6
CONTINUOUS
 62
     7
 10
-228.46499999999989
 20
238.99467433777451
 30
0.0
 11
-224.71499999999989
 21
238.99467433777451
 31
0.0
  0
TEXT
  5
2F4
  8
DATA
 62
     7
 10
-216.51828
 20
215.8398287542982
 30
0.0
 40
4.0721054296875003
  1
CH-1
 50
180.0
 41
0.7
 11
-216.51828
 21
211.7677233246107
 31
0.0
 73
     3
  0
TEXT
  5
2F5
  8
DATA
 62
     7
 10
-204.31249
 20
248.55916619999999
 30
0.0
 40
4.0721054296875003
  1
OUTPUT
 50
180.0
 41
0.7
 11
-204.31249
 21
244.4870607703125
 31
0.0
 73
     3
  0
ARC
  5
2F6
  8
DATA
  6
CONTINUOUS
 62
     7
 10
-249.75
 20
208.19999999999999
 30
0.0
 40
3.4999985068710728
 50
330.94070534997883
 51
209.0592946500208
  0
CIRCLE
  5
2F7
  8
DATA
  6
CONTINUOUS
 62
     7
 10
-182.74999999999989
 20
304.19999999999999
 30
0.0
 40
11.74999999999994
  0
ARC
  5
2F8
  8
DATA
  6
CONTINUOUS
 62
     7
 10
-182.74999999999989
 20
304.19999999999999
 30
0.0
 40
6.199576999279877
 50
240.002011574242
 51
330.00329548478851
  0
ARC
  5
2F9
  8
DATA
  6
CONTINUOUS
 62
     7
 10
-182.74999999999989
 20
304.19999999999999
 30
0.0
 40
6.1996037945984703
 50
59.99788591187086
 51
149.99788591187081
  0
ARC
  5
2FA
  8
DATA
  6
CONTINUOUS
 62
     7
 10
-182.74999999999989
 20
304.19999999999999
 30
0.0
 40
3.600180607969544
 50
60.00165947607735
 51
149.9945336792733
  0
ARC
  5
2FB
  8
DATA
  6
CONTINUOUS
 62
     7
 10
-182.74999999999989
 20
304.19999999999999
 30
0.0
 40
9.8001367750659441
 50
255.22057934059109
 51
284.7794206594088
  0
ARC
  5
2FC
  8
DATA
  6
CONTINUOUS
 62
     7
 10
-182.74999999999989
 20
304.19999999999999
 30
0.0
 40
9.8000753650163492
 50
81.195697341664342
 51
98.804302658335672
  0
ARC
  5
2FD
  8
DATA
  6
CONTINUOUS
 62
     7
 10
-182.74999999999989
 20
304.19999999999999
 30
0.0
 40
3.6002074176358221
 50
239.9945550346537
 51
330.00168078730508
  0
ARC
  5
2FE
  8
DATA
  6
CONTINUOUS
 62
     7
 10
-182.74999999999989
 20
304.19999999999999
 30
0.0
 40
8.8000859410576329
 50
98.804028767499261
 51
253.49565711471871
  0
ARC
  5
2FF
  8
DATA
  6
CONTINUOUS
 62
     7
 10
-182.74999999999989
 20
304.19999999999999
 30
0.0
 40
5.624619569357578
 50
150.0048199664792
 51
239.99751682417121
  0
LINE
  5
300
  8
DATA
  6
CONTINUOUS
 62
     7
 10
-185.5619999999999
 20
299.32900000000001
 30
0.0
 11
-185.8495999999999
 21
298.83080000000001
 31
0.0
  0
LINE
  5
301
  8
DATA
  6
CONTINUOUS
 62
     7
 10
-185.26089999999999
 20
305.64999999999998
 30
0.0
 11
-185.86770000000001
 21
306.00040000000001
 31
0.0
  0
LINE
  5
302
  8
DATA
  6
CONTINUOUS
 62
     7
 10
-185.25
 20
295.76249999999999
 30
0.0
 11
-185.25
 21
294.72410000000002
 31
0.0
  0
LINE
  5
303
  8
DATA
  6
CONTINUOUS
 62
     7
 10
-184.25
 20
313.88470000000001
 30
0.0
 11
-184.25
 21
312.87130000000002
 31
0.0
  0
ARC
  5
304
  8
DATA
  6
CONTINUOUS
 62
     7
 10
-182.74999999999989
 20
304.19999999999999
 30
0.0
 40
2.8995032005501029
 50
149.99433197284699
 51
239.9943319728462
  0
LINE
  5
305
  8
DATA
  6
CONTINUOUS
 62
     7
 10
-184.19990000000001
 20
301.68900000000002
 30
0.0
 11
-184.55029999999999
 21
301.0822
 31
0.0
  0
CIRCLE
  5
306
  8
DATA
  6
CONTINUOUS
 62
     7
 10
-192.24999999999989
 20
316.19999999999999
 30
0.0
 40
2.0
  0
LINE
  5
307
  8
DATA
  6
CONTINUOUS
 62
     7
 10
-191.24999999999989
 20
316.19999999999999
 30
0.0
 11
-193.24999999999989
 21
316.19999999999999
 31
0.0
  0
LINE
  5
308
  8
DATA
  6
CONTINUOUS
 62
     7
 10
-192.24999999999989
 20
317.19999999999999
 30
0.0
 11
-192.24999999999989
 21
315.19999999999999
 31
0.0
  0
LINE
  5
309
  8
DATA
  6
CONTINUOUS
 62
     7
 10
-187.6208
 20
307.012
 30
0.0
 11
-188.119
 21
307.30000000000001
 31
0.0
  0
CIRCLE
  5
30A
  8
DATA
  6
CONTINUOUS
 62
     7
 10
-173.25
 20
292.19999999999999
 30
0.0
 40
2.0
  0
LINE
  5
30B
  8
DATA
  6
CONTINUOUS
 62
     7
 10
-172.25
 20
292.19999999999999
 30
0.0
 11
-174.25
 21
292.19999999999999
 31
0.0
  0
LINE
  5
30C
  8
DATA
  6
CONTINUOUS
 62
     7
 10
-173.25
 20
293.19999999999999
 30
0.0
 11
-173.25
 21
291.19999999999999
 31
0.0
  0
LINE
  5
30D
  8
DATA
  6
CONTINUOUS
 62
     7
 10
-180.25
 20
295.76249999999999
 30
0.0
 11
-180.25
 21
294.72410000000002
 31
0.0
  0
ARC
  5
30E
  8
DATA
  6
CONTINUOUS
 62
     7
 10
-182.74999999999989
 20
304.19999999999999
 30
0.0
 40
8.8000799002054517
 50
286.50436138175507
 51
80.18584405310186
  0
LINE
  5
30F
  8
DATA
  6
CONTINUOUS
 62
     7
 10
-181.25
 20
313.88470000000001
 30
0.0
 11
-181.25
 21
312.87130000000002
 31
0.0
  0
ARC
  5
310
  8
DATA
  6
CONTINUOUS
 62
     7
 10
-182.74999999999989
 20
304.19999999999999
 30
0.0
 40
5.6246231491540284
 50
329.99660734629339
 51
60.002495329294369
  0
ARC
  5
311
  8
DATA
  6
CONTINUOUS
 62
     7
 10
-182.74999999999989
 20
304.19999999999999
 30
0.0
 40
2.8995130091102999
 50
330.0058526050243
 51
60.00310741906226
  0
LINE
  5
312
  8
DATA
  6
CONTINUOUS
 62
     7
 10
-177.8785
 20
301.38740000000001
 30
0.0
 11
-177.38069999999999
 21
301.10039999999998
 31
0.0
  0
LINE
  5
313
  8
DATA
  6
CONTINUOUS
 62
     7
 10
-180.23869999999999
 20
302.75040000000001
 30
0.0
 11
-179.63189999999989
 21
302.39999999999998
 31
0.0
  0
LINE
  5
314
  8
DATA
  6
CONTINUOUS
 62
     7
 10
-181.30029999999999
 20
306.71120000000002
 30
0.0
 11
-180.94990000000001
 21
307.31799999999998
 31
0.0
  0
LINE
  5
315
  8
DATA
  6
CONTINUOUS
 62
     7
 10
-179.93729999999999
 20
309.07119999999998
 30
0.0
 11
-179.6499
 21
309.56900000000002
 31
0.0
  0
CIRCLE
  5
316
  8
DATA
  6
CONTINUOUS
 62
     7
 10
-220.75
 20
304.19999999999999
 30
0.0
 40
11.75
  0
ARC
  5
317
  8
DATA
  6
CONTINUOUS
 62
     7
 10
-220.75
 20
304.19999999999999
 30
0.0
 40
6.199576999279877
 50
240.002011574242
 51
330.00329548478851
  0
ARC
  5
318
  8
DATA
  6
CONTINUOUS
 62
     7
 10
-220.75
 20
304.19999999999999
 30
0.0
 40
6.1996037945984703
 50
59.99788591187086
 51
149.99788591187061
  0
ARC
  5
319
  8
DATA
  6
CONTINUOUS
 62
     7
 10
-220.75
 20
304.19999999999999
 30
0.0
 40
3.600180607969544
 50
60.00165947607735
 51
149.9945336792733
  0
ARC
  5
31A
  8
DATA
  6
CONTINUOUS
 62
     7
 10
-220.75
 20
304.19999999999999
 30
0.0
 40
9.8001367750659441
 50
255.22057934059109
 51
284.7794206594088
  0
ARC
  5
31B
  8
DATA
  6
CONTINUOUS
 62
     7
 10
-220.75
 20
304.19999999999999
 30
0.0
 40
9.8000753650163492
 50
81.195697341664342
 51
98.804302658335672
  0
ARC
  5
31C
  8
DATA
  6
CONTINUOUS
 62
     7
 10
-220.75
 20
304.19999999999999
 30
0.0
 40
3.6002074176358221
 50
239.9945550346537
 51
330.00168078730508
  0
ARC
  5
31D
  8
DATA
  6
CONTINUOUS
 62
     7
 10
-220.75
 20
304.19999999999999
 30
0.0
 40
8.8000859410576329
 50
98.804028767499261
 51
253.49565711471871
  0
ARC
  5
31E
  8
DATA
  6
CONTINUOUS
 62
     7
 10
-220.75
 20
304.19999999999999
 30
0.0
 40
5.624619569357578
 50
150.0048199664792
 51
239.99751682417121
  0
LINE
  5
31F
  8
DATA
  6
CONTINUOUS
 62
     7
 10
-223.5619999999999
 20
299.32900000000001
 30
0.0
 11
-223.84960000000001
 21
298.83080000000001
 31
0.0
  0
LINE
  5
320
  8
DATA
  6
CONTINUOUS
 62
     7
 10
-223.26089999999999
 20
305.64999999999998
 30
0.0
 11
-223.86770000000001
 21
306.00040000000001
 31
0.0
  0
LINE
  5
321
  8
DATA
  6
CONTINUOUS
 62
     7
 10
-223.25
 20
295.76249999999999
 30
0.0
 11
-223.25
 21
294.72410000000002
 31
0.0
  0
LINE
  5
322
  8
DATA
  6
CONTINUOUS
 62
     7
 10
-222.25
 20
313.88470000000001
 30
0.0
 11
-222.25
 21
312.87130000000002
 31
0.0
  0
ARC
  5
323
  8
DATA
  6
CONTINUOUS
 62
     7
 10
-220.75
 20
304.19999999999999
 30
0.0
 40
2.8995032005501029
 50
149.99433197284699
 51
239.9943319728462
  0
LINE
  5
324
  8
DATA
  6
CONTINUOUS
 62
     7
 10
-222.19990000000001
 20
301.68900000000002
 30
0.0
 11
-222.55029999999999
 21
301.0822
 31
0.0
  0
CIRCLE
  5
325
  8
DATA
  6
CONTINUOUS
 62
     7
 10
-230.25
 20
316.19999999999999
 30
0.0
 40
2.0
  0
LINE
  5
326
  8
DATA
  6
CONTINUOUS
 62
     7
 10
-229.25
 20
316.19999999999999
 30
0.0
 11
-231.25
 21
316.19999999999999
 31
0.0
  0
LINE
  5
327
  8
DATA
  6
CONTINUOUS
 62
     7
 10
-230.25
 20
317.19999999999999
 30
0.0
 11
-230.25
 21
315.19999999999999
 31
0.0
  0
LINE
  5
328
  8
DATA
  6
CONTINUOUS
 62
     7
 10
-225.6208
 20
307.012
 30
0.0
 11
-226.119
 21
307.30000000000001
 31
0.0
  0
CIRCLE
  5
329
  8
DATA
  6
CONTINUOUS
 62
     7
 10
-211.25
 20
292.19999999999999
 30
0.0
 40
2.0
  0
LINE
  5
32A
  8
DATA
  6
CONTINUOUS
 62
     7
 10
-210.25
 20
292.19999999999999
 30
0.0
 11
-212.25
 21
292.19999999999999
 31
0.0
  0
LINE
  5
32B
  8
DATA
  6
CONTINUOUS
 62
     7
 10
-211.25
 20
293.19999999999999
 30
0.0
 11
-211.25
 21
291.19999999999999
 31
0.0
  0
LINE
  5
32C
  8
DATA
  6
CONTINUOUS
 62
     7
 10
-218.25
 20
295.76249999999999
 30
0.0
 11
-218.25
 21
294.72410000000002
 31
0.0
  0
ARC
  5
32D
  8
DATA
  6
CONTINUOUS
 62
     7
 10
-220.75
 20
304.19999999999999
 30
0.0
 40
8.8000799002054517
 50
286.50436138175507
 51
80.18584405310186
  0
LINE
  5
32E
  8
DATA
  6
CONTINUOUS
 62
     7
 10
-219.25
 20
313.88470000000001
 30
0.0
 11
-219.25
 21
312.87130000000002
 31
0.0
  0
ARC
  5
32F
  8
DATA
  6
CONTINUOUS
 62
     7
 10
-220.75
 20
304.19999999999999
 30
0.0
 40
5.6246231491540284
 50
329.99660734629339
 51
60.002495329294369
  0
ARC
  5
330
  8
DATA
  6
CONTINUOUS
 62
     7
 10
-220.75
 20
304.19999999999999
 30
0.0
 40
2.8995130091102999
 50
330.0058526050243
 51
60.00310741906226
  0
LINE
  5
331
  8
DATA
  6
CONTINUOUS
 62
     7
 10
-215.8785
 20
301.38740000000001
 30
0.0
 11
-215.38069999999999
 21
301.10039999999998
 31
0.0
  0
LINE
  5
332
  8
DATA
  6
CONTINUOUS
 62
     7
 10
-218.23869999999999
 20
302.75040000000001
 30
0.0
 11
-217.6319
 21
302.39999999999998
 31
0.0
  0
LINE
  5
333
  8
DATA
  6
CONTINUOUS
 62
     7
 10
-219.30029999999999
 20
306.71120000000002
 30
0.0
 11
-218.94990000000001
 21
307.31799999999998
 31
0.0
  0
LINE
  5
334
  8
DATA
  6
CONTINUOUS
 62
     7
 10
-217.93729999999999
 20
309.07119999999998
 30
0.0
 11
-217.6499
 21
309.56900000000002
 31
0.0
  0
LINE
  5
335
  8
DATA
  6
CONTINUOUS
 62
     7
 10
-170.25
 20
254.19999999999999
 30
0.0
 11
-170.25
 21
278.69999999999999
 31
0.0
  0
LINE
  5
336
  8
DATA
  6
CONTINUOUS
 62
     7
 10
-231.25
 20
254.19999999999999
 30
0.0
 11
-231.25
 21
278.69999999999999
 31
0.0
  0
LINE
  5
337
  8
DATA
  6
CONTINUOUS
 62
     7
 10
-231.25
 20
254.19999999999999
 30
0.0
 11
-170.25
 21
254.19999999999999
 31
0.0
  0
LINE
  5
338
  8
DATA
  6
CONTINUOUS
 62
     7
 10
-231.25
 20
258.19999999999999
 30
0.0
 11
-170.25
 21
258.19999999999999
 31
0.0
  0
LINE
  5
339
  8
DATA
  6
CONTINUOUS
 62
     7
 10
-194.74999999999989
 20
262.19999999999999
 30
0.0
 11
-170.25
 21
262.19999999999999
 31
0.0
  0
LINE
  5
33A
  8
DATA
  6
CONTINUOUS
 62
     7
 10
-231.25
 20
262.19999999999999
 30
0.0
 11
-206.75
 21
262.19999999999999
 31
0.0
  0
LINE
  5
33B
  8
DATA
  6
CONTINUOUS
 62
     7
 10
-194.74999999999989
 20
266.19999999999999
 30
0.0
 11
-170.25
 21
266.19999999999999
 31
0.0
  0
LINE
  5
33C
  8
DATA
  6
CONTINUOUS
 62
     7
 10
-231.25
 20
266.19999999999999
 30
0.0
 11
-206.75
 21
266.19999999999999
 31
0.0
  0
LINE
  5
33D
  8
DATA
  6
CONTINUOUS
 62
     7
 10
-194.74999999999989
 20
270.19999999999999
 30
0.0
 11
-170.25
 21
270.19999999999999
 31
0.0
  0
LINE
  5
33E
  8
DATA
  6
CONTINUOUS
 62
     7
 10
-231.25
 20
270.19999999999999
 30
0.0
 11
-206.75
 21
270.19999999999999
 31
0.0
  0
LINE
  5
33F
  8
DATA
  6
CONTINUOUS
 62
     7
 10
-194.74999999999989
 20
274.19999999999999
 30
0.0
 11
-170.25
 21
274.19999999999999
 31
0.0
  0
LINE
  5
340
  8
DATA
  6
CONTINUOUS
 62
     7
 10
-231.25
 20
274.19999999999999
 30
0.0
 11
-206.75
 21
274.19999999999999
 31
0.0
  0
LINE
  5
341
  8
DATA
  6
CONTINUOUS
 62
     7
 10
-231.25
 20
278.69999999999999
 30
0.0
 11
-206.75
 21
278.69999999999999
 31
0.0
  0
LINE
  5
342
  8
DATA
  6
CONTINUOUS
 62
     7
 10
-194.74999999999989
 20
278.69999999999999
 30
0.0
 11
-170.25
 21
278.69999999999999
 31
0.0
  0
TEXT
  5
343
  8
DATA
 62
     7
 10
-189.50521999999989
 20
257.1524938
 30
0.0
 40
2.0360488671875001
  1
OUTPUT ASSIGNMENT
 50
180.0
 41
0.7
 11
-189.50521999999989
 21
255.1164449328125
 31
0.0
 73
     3
  0
LINE
  5
344
  8
DATA
  6
CONTINUOUS
 62
     7
 10
-194.74999999999989
 20
278.69999999999999
 30
0.0
 11
-194.74999999999989
 21
258.19999999999999
 31
0.0
  0
TEXT
  5
345
  8
DATA
 62
     7
 10
-187.1041699999999
 20
261.32958379999991
 30
0.0
 40
2.0360488671875001
  1
CH
 50
180.0
 41
0.7
 11
-187.1041699999999
 21
259.29353493281252
 31
0.0
 73
     3
  0
TEXT
  5
346
  8
DATA
 62
     7
 10
-187.1041699999999
 20
265.32958380000002
 30
0.0
 40
2.0360488671875001
  1
2
 50
180.0
 41
0.7
 11
-187.1041699999999
 21
263.29353493281252
 31
0.0
 73
     3
  0
TEXT
  5
347
  8
DATA
 62
     7
 10
-187.1041699999999
 20
269.32958380000002
 30
0.0
 40
2.0360488671875001
  1
2
 50
180.0
 41
0.7
 11
-187.1041699999999
 21
267.29353493281241
 31
0.0
 73
     3
  0
TEXT
  5
348
  8
DATA
 62
     7
 10
-223.6041699999999
 20
261.32958379999991
 30
0.0
 40
2.0360488671875001
  1
CH
 50
180.0
 41
0.7
 11
-223.6041699999999
 21
259.29353493281252
 31
0.0
 73
     3
  0
TEXT
  5
349
  8
DATA
 62
     7
 10
-223.6041699999999
 20
265.32958380000002
 30
0.0
 40
2.0360488671875001
  1
1
 50
180.0
 41
0.7
 11
-223.6041699999999
 21
263.29353493281252
 31
0.0
 73
     3
  0
TEXT
  5
34A
  8
DATA
 62
     7
 10
-223.6041699999999
 20
269.32958380000002
 30
0.0
 40
2.0360488671875001
  1
1
 50
180.0
 41
0.7
 11
-223.6041699999999
 21
267.29353493281241
 31
0.0
 73
     3
  0
TEXT
  5
34B
  8
DATA
 62
     7
 10
-223.6041699999999
 20
273.32958380000002
 30
0.0
 40
2.0360488671875001
  1
2
 50
180.0
 41
0.7
 11
-223.6041699999999
 21
271.29353493281241
 31
0.0
 73
     3
  0
TEXT
  5
34C
  8
DATA
 62
     7
 10
-223.6041699999999
 20
277.32958380000002
 30
0.0
 40
2.0360488671875001
  1
2
 50
180.0
 41
0.7
 11
-223.6041699999999
 21
275.29353493281252
 31
0.0
 73
     3
  0
TEXT
  5
34D
  8
DATA
 62
     7
 10
-175.24999999999989
 20
261.32958379999991
 30
0.0
 40
2.0360488671875001
  1
PIN
 50
180.0
 41
0.7
 11
-175.24999999999989
 21
259.29353493281252
 31
0.0
 73
     3
  0
TEXT
  5
34E
  8
DATA
 62
     7
 10
-175.24999999999989
 20
265.32958380000002
 30
0.0
 40
2.0360488671875001
  1
1+
 50
180.0
 41
0.7
 11
-175.24999999999989
 21
263.29353493281252
 31
0.0
 73
     3
  0
TEXT
  5
34F
  8
DATA
 62
     7
 10
-175.24999999999989
 20
269.32958380000002
 30
0.0
 40
2.0360488671875001
  1
1-
 50
180.0
 41
0.7
 11
-175.24999999999989
 21
267.29353493281241
 31
0.0
 73
     3
  0
TEXT
  5
350
  8
DATA
 62
     7
 10
-175.24999999999989
 20
273.32958380000002
 30
0.0
 40
2.0360488671875001
  1
2+
 50
180.0
 41
0.7
 11
-175.24999999999989
 21
271.29353493281241
 31
0.0
 73
     3
  0
TEXT
  5
351
  8
DATA
 62
     7
 10
-175.24999999999989
 20
277.32958380000002
 30
0.0
 40
2.0360488671875001
  1
2-
 50
180.0
 41
0.7
 11
-175.24999999999989
 21
275.29353493281252
 31
0.0
 73
     3
  0
TEXT
  5
352
  8
DATA
 62
     7
 10
-211.75
 20
261.32958379999991
 30
0.0
 40
2.0360488671875001
  1
PIN
 50
180.0
 41
0.7
 11
-211.75
 21
259.29353493281252
 31
0.0
 73
     3
  0
TEXT
  5
353
  8
DATA
 62
     7
 10
-211.75
 20
265.32958380000002
 30
0.0
 40
2.0360488671875001
  1
1+
 50
180.0
 41
0.7
 11
-211.75
 21
263.29353493281252
 31
0.0
 73
     3
  0
TEXT
  5
354
  8
DATA
 62
     7
 10
-211.75
 20
269.32958380000002
 30
0.0
 40
2.0360488671875001
  1
1-
 50
180.0
 41
0.7
 11
-211.75
 21
267.29353493281241
 31
0.0
 73
     3
  0
TEXT
  5
355
  8
DATA
 62
     7
 10
-211.75
 20
273.32958380000002
 30
0.0
 40
2.0360488671875001
  1
2+
 50
180.0
 41
0.7
 11
-211.75
 21
271.29353493281241
 31
0.0
 73
     3
  0
TEXT
  5
356
  8
DATA
 62
     7
 10
-211.75
 20
277.32958380000002
 30
0.0
 40
2.0360488671875001
  1
2-
 50
180.0
 41
0.7
 11
-211.75
 21
275.29353493281252
 31
0.0
 73
     3
  0
LINE
  5
357
  8
DATA
  6
CONTINUOUS
 62
     7
 10
-206.75
 20
278.69999999999999
 30
0.0
 11
-206.75
 21
258.19999999999999
 31
0.0
  0
LINE
  5
358
  8
DATA
  6
CONTINUOUS
 62
     7
 10
-194.74999999999989
 20
280.19999999999999
 30
0.0
 11
-194.74999999999989
 21
285.69999999999999
 31
0.0
  0
LINE
  5
359
  8
DATA
  6
CONTINUOUS
 62
     7
 10
-170.25
 20
280.19999999999999
 30
0.0
 11
-194.74999999999989
 21
280.19999999999999
 31
0.0
  0
LINE
  5
35A
  8
DATA
  6
CONTINUOUS
 62
     7
 10
-170.25
 20
285.69999999999999
 30
0.0
 11
-170.25
 21
280.19999999999999
 31
0.0
  0
LINE
  5
35B
  8
DATA
  6
CONTINUOUS
 62
     7
 10
-194.74999999999989
 20
285.69999999999999
 30
0.0
 11
-170.25
 21
285.69999999999999
 31
0.0
  0
LINE
  5
35C
  8
DATA
  6
CONTINUOUS
 62
     7
 10
-231.25
 20
280.19999999999999
 30
0.0
 11
-231.25
 21
285.69999999999999
 31
0.0
  0
LINE
  5
35D
  8
DATA
  6
CONTINUOUS
 62
     7
 10
-206.75
 20
280.19999999999999
 30
0.0
 11
-231.25
 21
280.19999999999999
 31
0.0
  0
LINE
  5
35E
  8
DATA
  6
CONTINUOUS
 62
     7
 10
-206.75
 20
285.69999999999999
 30
0.0
 11
-206.75
 21
280.19999999999999
 31
0.0
  0
LINE
  5
35F
  8
DATA
  6
CONTINUOUS
 62
     7
 10
-231.25
 20
285.69999999999999
 30
0.0
 11
-206.75
 21
285.69999999999999
 31
0.0
  0
TEXT
  5
360
  8
DATA
 62
     7
 10
-178.53124999999989
 20
284.8549961999999
 30
0.0
 40
4.0721054296875003
  1
CH2
 50
180.0
 41
0.7
 11
-178.53124999999989
 21
280.78289077031252
 31
0.0
 73
     3
  0
TEXT
  5
361
  8
DATA
 62
     7
 10
-215.03125
 20
284.8549961999999
 30
0.0
 40
4.0721054296875003
  1
CH1
 50
180.0
 41
0.7
 11
-215.03125
 21
280.78289077031252
 31
0.0
 73
     3
  0
ARC
  5
362
  8
DATA
  6
CONTINUOUS
 62
     7
 10
-324.25
 20
222.19999999999999
 30
0.0
 40
2.0
 50
270.0
 51
0.0
  0
LINE
  5
363
  8
DATA
  6
CONTINUOUS
 62
     7
 10
-324.25
 20
220.19999999999999
 30
0.0
 11
-350.24999999999989
 21
220.19999999999999
 31
0.0
  0
ARC
  5
364
  8
DATA
  6
CONTINUOUS
 62
     7
 10
-350.24999999999989
 20
222.19999999999999
 30
0.0
 40
2.0
 50
180.0
 51
270.0
  0
LINE
  5
365
  8
DATA
  6
CONTINUOUS
 62
     7
 10
-352.24999999999989
 20
241.19999999999999
 30
0.0
 11
-352.24999999999989
 21
222.19999999999999
 31
0.0
  0
ARC
  5
366
  8
DATA
  6
CONTINUOUS
 62
     7
 10
-350.24999999999989
 20
241.19999999999999
 30
0.0
 40
2.0
 50
90.0
 51
180.0
  0
LINE
  5
367
  8
DATA
  6
CONTINUOUS
 62
     7
 10
-322.25
 20
241.19999999999999
 30
0.0
 11
-322.25
 21
222.19999999999999
 31
0.0
  0
LINE
  5
368
  8
DATA
  6
CONTINUOUS
 62
     7
 10
-324.25
 20
243.19999999999999
 30
0.0
 11
-350.24999999999989
 21
243.19999999999999
 31
0.0
  0
ARC
  5
369
  8
DATA
  6
CONTINUOUS
 62
     7
 10
-324.25
 20
241.19999999999999
 30
0.0
 40
2.0
 50
0.0
 51
90.0
  0
ARC
  5
36A
  8
DATA
  6
CONTINUOUS
 62
     7
 10
-327.24999999999989
 20
225.69999999999999
 30
0.0
 40
2.0
 50
270.0
 51
0.0
  0
LINE
  5
36B
  8
DATA
  6
CONTINUOUS
 62
     7
 10
-327.24999999999989
 20
223.69999999999999
 30
0.0
 11
-347.25
 21
223.69999999999999
 31
0.0
  0
ARC
  5
36C
  8
DATA
  6
CONTINUOUS
 62
     7
 10
-347.25
 20
225.69999999999999
 30
0.0
 40
2.0
 50
180.0
 51
270.0
  0
LINE
  5
36D
  8
DATA
  6
CONTINUOUS
 62
     7
 10
-329.74999999999989
 20
239.69999999999999
 30
0.0
 11
-344.74999999999989
 21
239.69999999999999
 31
0.0
  0
LINE
  5
36E
  8
DATA
  6
CONTINUOUS
 62
     7
 10
-325.24999999999989
 20
235.69999999999999
 30
0.0
 11
-325.24999999999989
 21
225.69999999999999
 31
0.0
  0
LINE
  5
36F
  8
DATA
  6
CONTINUOUS
 62
     7
 10
-349.25
 20
235.69999999999999
 30
0.0
 11
-349.25
 21
225.69999999999999
 31
0.0
  0
LINE
  5
370
  8
DATA
  6
CONTINUOUS
 62
     7
 10
-325.24999999999989
 20
235.69999999999999
 30
0.0
 11
-329.74999999999989
 21
239.69999999999999
 31
0.0
  0
LINE
  5
371
  8
DATA
  6
CONTINUOUS
 62
     7
 10
-344.74999999999989
 20
239.69999999999999
 30
0.0
 11
-349.25
 21
235.69999999999999
 31
0.0
  0
LINE
  5
372
  8
DATA
  6
CONTINUOUS
 62
     7
 10
-331.3057
 20
227.02539999999999
 30
0.0
 11
-331.3057
 21
230.82159999999999
 31
0.0
  0
LINE
  5
373
  8
DATA
  6
CONTINUOUS
 62
     7
 10
-332.6346999999999
 20
230.82159999999999
 30
0.0
 11
-332.6346999999999
 21
227.02539999999999
 31
0.0
  0
LINE
  5
374
  8
DATA
  6
CONTINUOUS
 62
     7
 10
-341.86509999999998
 20
227.02539999999999
 30
0.0
 11
-341.86509999999998
 21
230.82159999999999
 31
0.0
  0
LINE
  5
375
  8
DATA
  6
CONTINUOUS
 62
     7
 10
-343.19409999999988
 20
230.82159999999999
 30
0.0
 11
-343.19409999999988
 21
227.02539999999999
 31
0.0
  0
LINE
  5
376
  8
DATA
  6
CONTINUOUS
 62
     7
 10
-331.3057
 20
227.02539999999999
 30
0.0
 11
-332.6346999999999
 21
227.02539999999999
 31
0.0
  0
LINE
  5
377
  8
DATA
  6
CONTINUOUS
 62
     7
 10
-341.86509999999998
 20
227.02539999999999
 30
0.0
 11
-343.19409999999988
 21
227.02539999999999
 31
0.0
  0
LINE
  5
378
  8
DATA
  6
CONTINUOUS
 62
     7
 10
-341.86509999999998
 20
230.82159999999999
 30
0.0
 11
-343.19409999999988
 21
230.82159999999999
 31
0.0
  0
LINE
  5
379
  8
DATA
  6
CONTINUOUS
 62
     7
 10
-331.3057
 20
230.82159999999999
 30
0.0
 11
-332.6346999999999
 21
230.82159999999999
 31
0.0
  0
LINE
  5
37A
  8
DATA
  6
CONTINUOUS
 62
     7
 10
-336.41919999999988
 20
232.30709999999999
 30
0.0
 11
-336.41919999999988
 21
236.64590000000001
 31
0.0
  0
LINE
  5
37B
  8
DATA
  6
CONTINUOUS
 62
     7
 10
-336.41919999999988
 20
232.30719999999999
 30
0.0
 11
-338.0807999999999
 21
232.30719999999999
 31
0.0
  0
LINE
  5
37C
  8
DATA
  6
CONTINUOUS
 62
     7
 10
-338.0807999999999
 20
236.64590000000001
 30
0.0
 11
-338.0807999999999
 21
232.30709999999999
 31
0.0
  0
LINE
  5
37D
  8
DATA
  6
CONTINUOUS
 62
     7
 10
-336.41919999999988
 20
236.64590000000001
 30
0.0
 11
-338.0807999999999
 21
236.64590000000001
 31
0.0
  0
LINE
  5
37E
  8
DATA
  6
CONTINUOUS
 62
     7
 10
-350.19999999999987
 20
-488.84999999999991
 30
0.0
 11
-350.19999999999987
 21
-474.84999999999991
 31
0.0
  0
LINE
  5
37F
  8
DATA
  6
CONTINUOUS
 62
     7
 10
-320.19999999999987
 20
-488.84999999999991
 30
0.0
 11
-350.19999999999987
 21
-488.84999999999991
 31
0.0
  0
LINE
  5
380
  8
DATA
  6
CONTINUOUS
 62
     7
 10
-320.19999999999987
 20
-474.84999999999991
 30
0.0
 11
-320.19999999999987
 21
-488.84999999999991
 31
0.0
  0
LINE
  5
381
  8
DATA
  6
CONTINUOUS
 62
     7
 10
-350.19999999999987
 20
-474.84999999999991
 30
0.0
 11
-320.19999999999987
 21
-474.84999999999991
 31
0.0
  0
LINE
  5
382
  8
DATA
  6
CONTINUOUS
 62
     7
 10
-346.69999999999987
 20
-486.0999999999998
 30
0.0
 11
-346.69999999999987
 21
-477.5999999999998
 31
0.0
  0
LINE
  5
383
  8
DATA
  6
CONTINUOUS
 62
     7
 10
-323.69999999999987
 20
-486.0999999999998
 30
0.0
 11
-346.69999999999987
 21
-486.0999999999998
 31
0.0
  0
LINE
  5
384
  8
DATA
  6
CONTINUOUS
 62
     7
 10
-323.69999999999987
 20
-477.5999999999998
 30
0.0
 11
-323.69999999999987
 21
-486.0999999999998
 31
0.0
  0
LINE
  5
385
  8
DATA
  6
CONTINUOUS
 62
     7
 10
-346.69999999999987
 20
-477.5999999999998
 30
0.0
 11
-323.69999999999987
 21
-477.5999999999998
 31
0.0
  0
LINE
  5
386
  8
DATA
  6
CONTINUOUS
 62
     7
 10
-328.69999999999987
 20
-477.5999999999998
 30
0.0
 11
-328.69999999999987
 21
-486.0999999999998
 31
0.0
  0
LINE
  5
387
  8
DATA
  6
CONTINUOUS
 62
     7
 10
-269.55000000000001
 20
-385.14999999999998
 30
0.0
 11
-239.0
 21
-385.14999999999998
 31
0.0
  0
LINE
  5
388
  8
DATA
  6
CONTINUOUS
 62
     7
 10
-269.55000000000001
 20
-391.55000000000001
 30
0.0
 11
-239.0
 21
-391.55000000000001
 31
0.0
  0
ARC
  5
389
  8
DATA
  6
CONTINUOUS
 62
     7
 10
-269.55000000000001
 20
-388.34999999999991
 30
0.0
 40
3.1999999999999309
 50
90.0
 51
270.0
  0
LINE
  5
38A
  8
DATA
  6
CONTINUOUS
 62
     7
 10
-269.55000000000001
 20
-394.14999999999998
 30
0.0
 11
-239.0
 21
-394.14999999999998
 31
0.0
  0
LINE
  5
38B
  8
DATA
  6
CONTINUOUS
 62
     7
 10
-269.55000000000001
 20
-400.55000000000001
 30
0.0
 11
-239.0
 21
-400.55000000000001
 31
0.0
  0
ARC
  5
38C
  8
DATA
  6
CONTINUOUS
 62
     7
 10
-269.55000000000001
 20
-397.34999999999991
 30
0.0
 40
3.1999999999999309
 50
90.0
 51
270.0
  0
LINE
  5
38D
  8
DATA
  6
CONTINUOUS
 62
     7
 10
-269.55000000000001
 20
-403.14999999999992
 30
0.0
 11
-239.0
 21
-403.14999999999992
 31
0.0
  0
LINE
  5
38E
  8
DATA
  6
CONTINUOUS
 62
     7
 10
-269.55000000000001
 20
-409.55000000000001
 30
0.0
 11
-239.0
 21
-409.55000000000001
 31
0.0
  0
ARC
  5
38F
  8
DATA
  6
CONTINUOUS
 62
     7
 10
-269.55000000000001
 20
-406.34999999999991
 30
0.0
 40
3.1999999999999309
 50
90.0
 51
270.0
  0
LINE
  5
390
  8
DATA
  6
CONTINUOUS
 62
     7
 10
-269.55000000000001
 20
-412.14999999999998
 30
0.0
 11
-239.0
 21
-412.14999999999998
 31
0.0
  0
LINE
  5
391
  8
DATA
  6
CONTINUOUS
 62
     7
 10
-269.55000000000001
 20
-418.55000000000001
 30
0.0
 11
-239.0
 21
-418.55000000000001
 31
0.0
  0
ARC
  5
392
  8
DATA
  6
CONTINUOUS
 62
     7
 10
-269.55000000000001
 20
-415.34999999999991
 30
0.0
 40
3.1999999999999309
 50
90.0
 51
270.0
  0
LINE
  5
393
  8
DATA
  6
CONTINUOUS
 62
     7
 10
-269.55000000000001
 20
-421.14999999999998
 30
0.0
 11
-239.0
 21
-421.14999999999998
 31
0.0
  0
LINE
  5
394
  8
DATA
  6
CONTINUOUS
 62
     7
 10
-269.55000000000001
 20
-427.55000000000001
 30
0.0
 11
-239.0
 21
-427.55000000000001
 31
0.0
  0
ARC
  5
395
  8
DATA
  6
CONTINUOUS
 62
     7
 10
-269.55000000000001
 20
-424.34999999999991
 30
0.0
 40
3.1999999999999309
 50
90.0
 51
270.0
  0
LINE
  5
396
  8
DATA
  6
CONTINUOUS
 62
     7
 10
-269.55000000000001
 20
-430.14999999999992
 30
0.0
 11
-239.0
 21
-430.14999999999992
 31
0.0
  0
LINE
  5
397
  8
DATA
  6
CONTINUOUS
 62
     7
 10
-269.55000000000001
 20
-436.5499999999999
 30
0.0
 11
-239.0
 21
-436.5499999999999
 31
0.0
  0
ARC
  5
398
  8
DATA
  6
CONTINUOUS
 62
     7
 10
-269.55000000000001
 20
-433.34999999999991
 30
0.0
 40
3.1999999999999309
 50
90.0
 51
270.0
  0
LINE
  5
399
  8
DATA
  6
CONTINUOUS
 62
     7
 10
-269.55000000000001
 20
-439.14999999999992
 30
0.0
 11
-239.0
 21
-439.14999999999992
 31
0.0
  0
LINE
  5
39A
  8
DATA
  6
CONTINUOUS
 62
     7
 10
-269.55000000000001
 20
-445.5499999999999
 30
0.0
 11
-239.0
 21
-445.5499999999999
 31
0.0
  0
ARC
  5
39B
  8
DATA
  6
CONTINUOUS
 62
     7
 10
-269.55000000000001
 20
-442.3499999999998
 30
0.0
 40
3.1999999999999309
 50
90.0
 51
270.0
  0
LINE
  5
39C
  8
DATA
  6
CONTINUOUS
 62
     7
 10
-269.55000000000001
 20
-448.14999999999992
 30
0.0
 11
-239.0
 21
-448.14999999999992
 31
0.0
  0
LINE
  5
39D
  8
DATA
  6
CONTINUOUS
 62
     7
 10
-269.55000000000001
 20
-454.55000000000001
 30
0.0
 11
-239.0
 21
-454.55000000000001
 31
0.0
  0
ARC
  5
39E
  8
DATA
  6
CONTINUOUS
 62
     7
 10
-269.55000000000001
 20
-451.34999999999991
 30
0.0
 40
3.1999999999999309
 50
90.0
 51
270.0
  0
LINE
  5
39F
  8
DATA
  6
CONTINUOUS
 62
     7
 10
-122.0
 20
-409.84999999999991
 30
0.0
 11
-194.5
 21
-409.84999999999991
 31
0.0
  0
LINE
  5
3A0
  8
DATA
  6
CONTINUOUS
 62
     7
 10
-46.950000000000003
 20
-385.14999999999998
 30
0.0
 11
-77.499999999999986
 21
-385.14999999999998
 31
0.0
  0
LINE
  5
3A1
  8
DATA
  6
CONTINUOUS
 62
     7
 10
-46.950000000000003
 20
-391.55000000000001
 30
0.0
 11
-77.499999999999986
 21
-391.55000000000001
 31
0.0
  0
ARC
  5
3A2
  8
DATA
  6
CONTINUOUS
 62
     7
 10
-46.950000000000003
 20
-388.34999999999991
 30
0.0
 40
3.200000000000045
 50
270.0
 51
90.0
  0
LINE
  5
3A3
  8
DATA
  6
CONTINUOUS
 62
     7
 10
-46.950000000000003
 20
-394.14999999999998
 30
0.0
 11
-77.499999999999986
 21
-394.14999999999998
 31
0.0
  0
LINE
  5
3A4
  8
DATA
  6
CONTINUOUS
 62
     7
 10
-46.950000000000003
 20
-400.55000000000001
 30
0.0
 11
-77.499999999999986
 21
-400.55000000000001
 31
0.0
  0
ARC
  5
3A5
  8
DATA
  6
CONTINUOUS
 62
     7
 10
-46.950000000000003
 20
-397.34999999999991
 30
0.0
 40
3.200000000000045
 50
270.0
 51
90.0
  0
LINE
  5
3A6
  8
DATA
  6
CONTINUOUS
 62
     7
 10
-46.950000000000003
 20
-403.14999999999992
 30
0.0
 11
-77.499999999999986
 21
-403.14999999999992
 31
0.0
  0
LINE
  5
3A7
  8
DATA
  6
CONTINUOUS
 62
     7
 10
-46.950000000000003
 20
-409.55000000000001
 30
0.0
 11
-77.499999999999986
 21
-409.55000000000001
 31
0.0
  0
ARC
  5
3A8
  8
DATA
  6
CONTINUOUS
 62
     7
 10
-46.950000000000003
 20
-406.34999999999991
 30
0.0
 40
3.200000000000045
 50
270.0
 51
90.0
  0
LINE
  5
3A9
  8
DATA
  6
CONTINUOUS
 62
     7
 10
-46.950000000000003
 20
-412.14999999999998
 30
0.0
 11
-77.499999999999986
 21
-412.14999999999998
 31
0.0
  0
LINE
  5
3AA
  8
DATA
  6
CONTINUOUS
 62
     7
 10
-46.950000000000003
 20
-418.55000000000001
 30
0.0
 11
-77.499999999999986
 21
-418.55000000000001
 31
0.0
  0
ARC
  5
3AB
  8
DATA
  6
CONTINUOUS
 62
     7
 10
-46.950000000000003
 20
-415.34999999999991
 30
0.0
 40
3.200000000000045
 50
270.0
 51
90.0
  0
LINE
  5
3AC
  8
DATA
  6
CONTINUOUS
 62
     7
 10
-46.950000000000003
 20
-421.14999999999998
 30
0.0
 11
-77.499999999999986
 21
-421.14999999999998
 31
0.0
  0
LINE
  5
3AD
  8
DATA
  6
CONTINUOUS
 62
     7
 10
-46.950000000000003
 20
-427.55000000000001
 30
0.0
 11
-77.499999999999986
 21
-427.55000000000001
 31
0.0
  0
ARC
  5
3AE
  8
DATA
  6
CONTINUOUS
 62
     7
 10
-46.950000000000003
 20
-424.34999999999991
 30
0.0
 40
3.200000000000045
 50
270.0
 51
90.0
  0
LINE
  5
3AF
  8
DATA
  6
CONTINUOUS
 62
     7
 10
-46.950000000000003
 20
-430.14999999999992
 30
0.0
 11
-77.499999999999986
 21
-430.14999999999992
 31
0.0
  0
LINE
  5
3B0
  8
DATA
  6
CONTINUOUS
 62
     7
 10
-46.950000000000003
 20
-436.5499999999999
 30
0.0
 11
-77.499999999999986
 21
-436.5499999999999
 31
0.0
  0
ARC
  5
3B1
  8
DATA
  6
CONTINUOUS
 62
     7
 10
-46.950000000000003
 20
-433.34999999999991
 30
0.0
 40
3.200000000000045
 50
270.0
 51
90.0
  0
LINE
  5
3B2
  8
DATA
  6
CONTINUOUS
 62
     7
 10
-46.950000000000003
 20
-439.14999999999992
 30
0.0
 11
-77.499999999999986
 21
-439.14999999999992
 31
0.0
  0
LINE
  5
3B3
  8
DATA
  6
CONTINUOUS
 62
     7
 10
-46.950000000000003
 20
-445.5499999999999
 30
0.0
 11
-77.499999999999986
 21
-445.5499999999999
 31
0.0
  0
ARC
  5
3B4
  8
DATA
  6
CONTINUOUS
 62
     7
 10
-46.950000000000003
 20
-442.3499999999998
 30
0.0
 40
3.200000000000045
 50
270.0
 51
90.0
  0
LINE
  5
3B5
  8
DATA
  6
CONTINUOUS
 62
     7
 10
-46.950000000000003
 20
-448.14999999999992
 30
0.0
 11
-77.499999999999986
 21
-448.14999999999992
 31
0.0
  0
LINE
  5
3B6
  8
DATA
  6
CONTINUOUS
 62
     7
 10
-46.950000000000003
 20
-454.55000000000001
 30
0.0
 11
-77.499999999999986
 21
-454.55000000000001
 31
0.0
  0
ARC
  5
3B7
  8
DATA
  6
CONTINUOUS
 62
     7
 10
-46.950000000000003
 20
-451.34999999999991
 30
0.0
 40
3.200000000000045
 50
270.0
 51
90.0
  0
LINE
  5
3B8
  8
DATA
  6
CONTINUOUS
 62
     7
 10
-122.0
 20
-416.24999999999989
 30
0.0
 11
-194.5
 21
-416.24999999999989
 31
0.0
  0
LINE
  5
3B9
  8
DATA
  6
CONTINUOUS
 62
     7
 10
-122.0
 20
-418.84999999999991
 30
0.0
 11
-194.5
 21
-418.84999999999991
 31
0.0
  0
LINE
  5
3BA
  8
DATA
  6
CONTINUOUS
 62
     7
 10
-122.0
 20
-425.25
 30
0.0
 11
-194.5
 21
-425.25
 31
0.0
  0
LINE
  5
3BB
  8
DATA
  6
CONTINUOUS
 62
     7
 10
-122.0
 20
-427.84999999999991
 30
0.0
 11
-194.5
 21
-427.84999999999991
 31
0.0
  0
LINE
  5
3BC
  8
DATA
  6
CONTINUOUS
 62
     7
 10
-122.0
 20
-434.24999999999989
 30
0.0
 11
-194.5
 21
-434.24999999999989
 31
0.0
  0
LINE
  5
3BD
  8
DATA
  6
CONTINUOUS
 62
     7
 10
-122.0
 20
-436.84999999999991
 30
0.0
 11
-194.5
 21
-436.84999999999991
 31
0.0
  0
LINE
  5
3BE
  8
DATA
  6
CONTINUOUS
 62
     7
 10
-122.0
 20
-443.24999999999989
 30
0.0
 11
-194.5
 21
-443.24999999999989
 31
0.0
  0
LINE
  5
3BF
  8
DATA
  6
CONTINUOUS
 62
     7
 10
-122.0
 20
-445.84999999999991
 30
0.0
 11
-194.5
 21
-445.84999999999991
 31
0.0
  0
LINE
  5
3C0
  8
DATA
  6
CONTINUOUS
 62
     7
 10
-122.0
 20
-452.24999999999989
 30
0.0
 11
-194.5
 21
-452.24999999999989
 31
0.0
  0
LINE
  5
3C1
  8
DATA
  6
CONTINUOUS
 62
     7
 10
-122.0
 20
-454.8499999999998
 30
0.0
 11
-194.5
 21
-454.8499999999998
 31
0.0
  0
LINE
  5
3C2
  8
DATA
  6
CONTINUOUS
 62
     7
 10
-122.0
 20
-461.24999999999989
 30
0.0
 11
-194.5
 21
-461.24999999999989
 31
0.0
  0
LINE
  5
3C3
  8
DATA
  6
CONTINUOUS
 62
     7
 10
-122.0
 20
-463.84999999999991
 30
0.0
 11
-194.5
 21
-463.84999999999991
 31
0.0
  0
LINE
  5
3C4
  8
DATA
  6
CONTINUOUS
 62
     7
 10
-122.0
 20
-470.24999999999989
 30
0.0
 11
-194.5
 21
-470.24999999999989
 31
0.0
  0
LINE
  5
3C5
  8
DATA
  6
CONTINUOUS
 62
     7
 10
-122.0
 20
-472.84999999999991
 30
0.0
 11
-194.5
 21
-472.84999999999991
 31
0.0
  0
LINE
  5
3C6
  8
DATA
  6
CONTINUOUS
 62
     7
 10
-122.0
 20
-479.24999999999989
 30
0.0
 11
-194.5
 21
-479.24999999999989
 31
0.0
  0
LINE
  5
3C7
  8
DATA
  6
CONTINUOUS
 62
     7
 10
-220.94145
 20
-395.17349999999999
 30
0.0
 11
-239.0
 21
-385.14999999999998
 31
0.0
  0
LINE
  5
3C8
  8
DATA
  6
CONTINUOUS
 62
     7
 10
-194.5
 20
-409.84999999999991
 30
0.0
 11
-211.33203
 21
-400.50727000000001
 31
0.0
  0
LINE
  5
3C9
  8
DATA
  6
CONTINUOUS
 62
     7
 10
-223.65434999999999
 20
-400.0677
 30
0.0
 11
-239.0
 21
-391.55000000000001
 31
0.0
  0
LINE
  5
3CA
  8
DATA
  6
CONTINUOUS
 62
     7
 10
-194.5
 20
-416.24999999999989
 30
0.0
 11
-214.04492999999999
 21
-405.40146999999979
 31
0.0
  0
ARC
  5
3CB
  8
DATA
  6
CONTINUOUS
 62
     7
 10
-212.7021
 20
-402.97894000000002
 30
0.0
 40
2.7979018947239509
 50
60.999994265215697
 51
240.99999426521569
  0
ARC
  5
3CC
  8
DATA
  6
CONTINUOUS
 62
     7
 10
-222.2979
 20
-397.62060000000002
 30
0.0
 40
2.7979018947239509
 50
240.99999426521569
 51
60.999994265215719
  0
LINE
  5
3CD
  8
DATA
  6
CONTINUOUS
 62
     7
 10
-220.94145
 20
-404.17349999999999
 30
0.0
 11
-239.0
 21
-394.14999999999998
 31
0.0
  0
LINE
  5
3CE
  8
DATA
  6
CONTINUOUS
 62
     7
 10
-194.5
 20
-418.84999999999991
 30
0.0
 11
-211.33203
 21
-409.50727000000001
 31
0.0
  0
LINE
  5
3CF
  8
DATA
  6
CONTINUOUS
 62
     7
 10
-223.65434999999999
 20
-409.0677
 30
0.0
 11
-239.0
 21
-400.55000000000001
 31
0.0
  0
LINE
  5
3D0
  8
DATA
  6
CONTINUOUS
 62
     7
 10
-194.5
 20
-425.25
 30
0.0
 11
-214.04492999999999
 21
-414.40146999999979
 31
0.0
  0
ARC
  5
3D1
  8
DATA
  6
CONTINUOUS
 62
     7
 10
-212.7021
 20
-411.97894000000002
 30
0.0
 40
2.7979018947239509
 50
60.999994265215697
 51
240.99999426521569
  0
ARC
  5
3D2
  8
DATA
  6
CONTINUOUS
 62
     7
 10
-222.2979
 20
-406.62060000000002
 30
0.0
 40
2.7979018947239509
 50
240.99999426521569
 51
60.999994265215719
  0
LINE
  5
3D3
  8
DATA
  6
CONTINUOUS
 62
     7
 10
-220.94145
 20
-413.17349999999988
 30
0.0
 11
-239.0
 21
-403.14999999999992
 31
0.0
  0
LINE
  5
3D4
  8
DATA
  6
CONTINUOUS
 62
     7
 10
-194.5
 20
-427.84999999999991
 30
0.0
 11
-211.33203
 21
-418.50727000000001
 31
0.0
  0
LINE
  5
3D5
  8
DATA
  6
CONTINUOUS
 62
     7
 10
-223.65434999999999
 20
-418.0677
 30
0.0
 11
-239.0
 21
-409.55000000000001
 31
0.0
  0
LINE
  5
3D6
  8
DATA
  6
CONTINUOUS
 62
     7
 10
-194.5
 20
-434.24999999999989
 30
0.0
 11
-214.04492999999999
 21
-423.40146999999979
 31
0.0
  0
ARC
  5
3D7
  8
DATA
  6
CONTINUOUS
 62
     7
 10
-212.7021
 20
-420.97894000000002
 30
0.0
 40
2.7979018947239509
 50
60.999994265215697
 51
240.99999426521569
  0
ARC
  5
3D8
  8
DATA
  6
CONTINUOUS
 62
     7
 10
-222.2979
 20
-415.62060000000002
 30
0.0
 40
2.7979018947239509
 50
240.99999426521569
 51
60.999994265215719
  0
LINE
  5
3D9
  8
DATA
  6
CONTINUOUS
 62
     7
 10
-220.94145
 20
-422.17349999999988
 30
0.0
 11
-239.0
 21
-412.14999999999998
 31
0.0
  0
LINE
  5
3DA
  8
DATA
  6
CONTINUOUS
 62
     7
 10
-194.5
 20
-436.84999999999991
 30
0.0
 11
-211.33203
 21
-427.50726999999989
 31
0.0
  0
LINE
  5
3DB
  8
DATA
  6
CONTINUOUS
 62
     7
 10
-223.65434999999999
 20
-427.0677
 30
0.0
 11
-239.0
 21
-418.55000000000001
 31
0.0
  0
LINE
  5
3DC
  8
DATA
  6
CONTINUOUS
 62
     7
 10
-194.5
 20
-443.24999999999989
 30
0.0
 11
-214.04492999999999
 21
-432.40146999999979
 31
0.0
  0
ARC
  5
3DD
  8
DATA
  6
CONTINUOUS
 62
     7
 10
-212.7021
 20
-429.97894000000002
 30
0.0
 40
2.7979018947239509
 50
60.999994265215697
 51
240.99999426521569
  0
ARC
  5
3DE
  8
DATA
  6
CONTINUOUS
 62
     7
 10
-222.2979
 20
-424.62059999999991
 30
0.0
 40
2.7979018947239509
 50
240.99999426521569
 51
60.999994265215719
  0
LINE
  5
3DF
  8
DATA
  6
CONTINUOUS
 62
     7
 10
-220.94145
 20
-431.17349999999988
 30
0.0
 11
-239.0
 21
-421.14999999999998
 31
0.0
  0
LINE
  5
3E0
  8
DATA
  6
CONTINUOUS
 62
     7
 10
-194.5
 20
-445.84999999999991
 30
0.0
 11
-211.33203
 21
-436.50726999999989
 31
0.0
  0
LINE
  5
3E1
  8
DATA
  6
CONTINUOUS
 62
     7
 10
-223.65434999999999
 20
-436.06769999999989
 30
0.0
 11
-239.0
 21
-427.55000000000001
 31
0.0
  0
LINE
  5
3E2
  8
DATA
  6
CONTINUOUS
 62
     7
 10
-194.5
 20
-452.24999999999989
 30
0.0
 11
-214.04492999999999
 21
-441.40146999999979
 31
0.0
  0
ARC
  5
3E3
  8
DATA
  6
CONTINUOUS
 62
     7
 10
-212.7021
 20
-438.97894000000002
 30
0.0
 40
2.7979018947239509
 50
60.999994265215697
 51
240.99999426521569
  0
ARC
  5
3E4
  8
DATA
  6
CONTINUOUS
 62
     7
 10
-222.2979
 20
-433.62060000000002
 30
0.0
 40
2.7979018947239509
 50
240.99999426521569
 51
60.999994265215719
  0
LINE
  5
3E5
  8
DATA
  6
CONTINUOUS
 62
     7
 10
-220.94145
 20
-440.17349999999999
 30
0.0
 11
-239.0
 21
-430.14999999999992
 31
0.0
  0
LINE
  5
3E6
  8
DATA
  6
CONTINUOUS
 62
     7
 10
-194.5
 20
-454.8499999999998
 30
0.0
 11
-211.33203
 21
-445.50727000000001
 31
0.0
  0
LINE
  5
3E7
  8
DATA
  6
CONTINUOUS
 62
     7
 10
-223.65434999999999
 20
-445.06769999999989
 30
0.0
 11
-239.0
 21
-436.5499999999999
 31
0.0
  0
LINE
  5
3E8
  8
DATA
  6
CONTINUOUS
 62
     7
 10
-194.5
 20
-461.24999999999989
 30
0.0
 11
-214.04492999999999
 21
-450.40146999999979
 31
0.0
  0
ARC
  5
3E9
  8
DATA
  6
CONTINUOUS
 62
     7
 10
-212.7021
 20
-447.97894000000002
 30
0.0
 40
2.7979018947239509
 50
60.999994265215697
 51
240.99999426521569
  0
ARC
  5
3EA
  8
DATA
  6
CONTINUOUS
 62
     7
 10
-222.2979
 20
-442.62060000000002
 30
0.0
 40
2.7979018947239509
 50
240.99999426521569
 51
60.999994265215719
  0
LINE
  5
3EB
  8
DATA
  6
CONTINUOUS
 62
     7
 10
-220.94145
 20
-449.17349999999999
 30
0.0
 11
-239.0
 21
-439.14999999999992
 31
0.0
  0
LINE
  5
3EC
  8
DATA
  6
CONTINUOUS
 62
     7
 10
-194.5
 20
-463.84999999999991
 30
0.0
 11
-211.33203
 21
-454.50727000000001
 31
0.0
  0
LINE
  5
3ED
  8
DATA
  6
CONTINUOUS
 62
     7
 10
-223.65434999999999
 20
-454.0677
 30
0.0
 11
-239.0
 21
-445.5499999999999
 31
0.0
  0
LINE
  5
3EE
  8
DATA
  6
CONTINUOUS
 62
     7
 10
-194.5
 20
-470.24999999999989
 30
0.0
 11
-214.04492999999999
 21
-459.40146999999979
 31
0.0
  0
ARC
  5
3EF
  8
DATA
  6
CONTINUOUS
 62
     7
 10
-212.7021
 20
-456.97894000000002
 30
0.0
 40
2.7979018947239509
 50
60.999994265215697
 51
240.99999426521569
  0
ARC
  5
3F0
  8
DATA
  6
CONTINUOUS
 62
     7
 10
-222.2979
 20
-451.62060000000002
 30
0.0
 40
2.7979018947239509
 50
240.99999426521569
 51
60.999994265215719
  0
LINE
  5
3F1
  8
DATA
  6
CONTINUOUS
 62
     7
 10
-220.94145
 20
-458.17349999999999
 30
0.0
 11
-239.0
 21
-448.14999999999992
 31
0.0
  0
LINE
  5
3F2
  8
DATA
  6
CONTINUOUS
 62
     7
 10
-194.5
 20
-472.84999999999991
 30
0.0
 11
-211.33203
 21
-463.50727000000001
 31
0.0
  0
LINE
  5
3F3
  8
DATA
  6
CONTINUOUS
 62
     7
 10
-223.65434999999999
 20
-463.0677
 30
0.0
 11
-239.0
 21
-454.55000000000001
 31
0.0
  0
LINE
  5
3F4
  8
DATA
  6
CONTINUOUS
 62
     7
 10
-194.5
 20
-479.24999999999989
 30
0.0
 11
-214.04492999999999
 21
-468.40146999999979
 31
0.0
  0
ARC
  5
3F5
  8
DATA
  6
CONTINUOUS
 62
     7
 10
-212.7021
 20
-465.97894000000002
 30
0.0
 40
2.7979018947239509
 50
60.999994265215697
 51
240.99999426521569
  0
ARC
  5
3F6
  8
DATA
  6
CONTINUOUS
 62
     7
 10
-222.2979
 20
-460.62060000000002
 30
0.0
 40
2.7979018947239509
 50
240.99999426521569
 51
60.999994265215719
  0
LINE
  5
3F7
  8
DATA
  6
CONTINUOUS
 62
     7
 10
-95.558549999999997
 20
-395.17349999999999
 30
0.0
 11
-77.499999999999986
 21
-385.14999999999998
 31
0.0
  0
LINE
  5
3F8
  8
DATA
  6
CONTINUOUS
 62
     7
 10
-122.0
 20
-409.84999999999991
 30
0.0
 11
-105.1679699999999
 21
-400.50727000000001
 31
0.0
  0
LINE
  5
3F9
  8
DATA
  6
CONTINUOUS
 62
     7
 10
-92.845650000000006
 20
-400.0677
 30
0.0
 11
-77.499999999999986
 21
-391.55000000000001
 31
0.0
  0
LINE
  5
3FA
  8
DATA
  6
CONTINUOUS
 62
     7
 10
-122.0
 20
-416.24999999999989
 30
0.0
 11
-102.45507000000001
 21
-405.40146999999979
 31
0.0
  0
ARC
  5
3FB
  8
DATA
  6
CONTINUOUS
 62
     7
 10
-103.7978999999999
 20
-402.97894000000002
 30
0.0
 40
2.7979018947239509
 50
299.00000573478422
 51
119.0000057347843
  0
ARC
  5
3FC
  8
DATA
  6
CONTINUOUS
 62
     7
 10
-94.202099999999987
 20
-397.62060000000002
 30
0.0
 40
2.7979018947239509
 50
119.0000057347843
 51
299.00000573478422
  0
LINE
  5
3FD
  8
DATA
  6
CONTINUOUS
 62
     7
 10
-95.558549999999997
 20
-404.17349999999999
 30
0.0
 11
-77.499999999999986
 21
-394.14999999999998
 31
0.0
  0
LINE
  5
3FE
  8
DATA
  6
CONTINUOUS
 62
     7
 10
-122.0
 20
-418.84999999999991
 30
0.0
 11
-105.1679699999999
 21
-409.50727000000001
 31
0.0
  0
LINE
  5
3FF
  8
DATA
  6
CONTINUOUS
 62
     7
 10
-92.845650000000006
 20
-409.0677
 30
0.0
 11
-77.499999999999986
 21
-400.55000000000001
 31
0.0
  0
LINE
  5
400
  8
DATA
  6
CONTINUOUS
 62
     7
 10
-122.0
 20
-425.25
 30
0.0
 11
-102.45507000000001
 21
-414.40146999999979
 31
0.0
  0
ARC
  5
401
  8
DATA
  6
CONTINUOUS
 62
     7
 10
-103.7978999999999
 20
-411.97894000000002
 30
0.0
 40
2.7979018947239509
 50
299.00000573478422
 51
119.0000057347843
  0
ARC
  5
402
  8
DATA
  6
CONTINUOUS
 62
     7
 10
-94.202099999999987
 20
-406.62060000000002
 30
0.0
 40
2.7979018947239509
 50
119.0000057347843
 51
299.00000573478422
  0
LINE
  5
403
  8
DATA
  6
CONTINUOUS
 62
     7
 10
-95.558549999999997
 20
-413.17349999999988
 30
0.0
 11
-77.499999999999986
 21
-403.14999999999992
 31
0.0
  0
LINE
  5
404
  8
DATA
  6
CONTINUOUS
 62
     7
 10
-122.0
 20
-427.84999999999991
 30
0.0
 11
-105.1679699999999
 21
-418.50727000000001
 31
0.0
  0
LINE
  5
405
  8
DATA
  6
CONTINUOUS
 62
     7
 10
-92.845650000000006
 20
-418.0677
 30
0.0
 11
-77.499999999999986
 21
-409.55000000000001
 31
0.0
  0
LINE
  5
406
  8
DATA
  6
CONTINUOUS
 62
     7
 10
-122.0
 20
-434.24999999999989
 30
0.0
 11
-102.45507000000001
 21
-423.40146999999979
 31
0.0
  0
ARC
  5
407
  8
DATA
  6
CONTINUOUS
 62
     7
 10
-103.7978999999999
 20
-420.97894000000002
 30
0.0
 40
2.7979018947239509
 50
299.00000573478422
 51
119.0000057347843
  0
ARC
  5
408
  8
DATA
  6
CONTINUOUS
 62
     7
 10
-94.202099999999987
 20
-415.62060000000002
 30
0.0
 40
2.7979018947239509
 50
119.0000057347843
 51
299.00000573478422
  0
LINE
  5
409
  8
DATA
  6
CONTINUOUS
 62
     7
 10
-95.558549999999997
 20
-422.17349999999988
 30
0.0
 11
-77.499999999999986
 21
-412.14999999999998
 31
0.0
  0
LINE
  5
40A
  8
DATA
  6
CONTINUOUS
 62
     7
 10
-122.0
 20
-436.84999999999991
 30
0.0
 11
-105.1679699999999
 21
-427.50726999999989
 31
0.0
  0
LINE
  5
40B
  8
DATA
  6
CONTINUOUS
 62
     7
 10
-92.845650000000006
 20
-427.0677
 30
0.0
 11
-77.499999999999986
 21
-418.55000000000001
 31
0.0
  0
LINE
  5
40C
  8
DATA
  6
CONTINUOUS
 62
     7
 10
-122.0
 20
-443.24999999999989
 30
0.0
 11
-102.45507000000001
 21
-432.40146999999979
 31
0.0
  0
ARC
  5
40D
  8
DATA
  6
CONTINUOUS
 62
     7
 10
-103.7978999999999
 20
-429.97894000000002
 30
0.0
 40
2.7979018947239509
 50
299.00000573478422
 51
119.0000057347843
  0
ARC
  5
40E
  8
DATA
  6
CONTINUOUS
 62
     7
 10
-94.202099999999987
 20
-424.62059999999991
 30
0.0
 40
2.7979018947239509
 50
119.0000057347843
 51
299.00000573478422
  0
LINE
  5
40F
  8
DATA
  6
CONTINUOUS
 62
     7
 10
-95.558549999999997
 20
-431.17349999999988
 30
0.0
 11
-77.499999999999986
 21
-421.14999999999998
 31
0.0
  0
LINE
  5
410
  8
DATA
  6
CONTINUOUS
 62
     7
 10
-122.0
 20
-445.84999999999991
 30
0.0
 11
-105.1679699999999
 21
-436.50726999999989
 31
0.0
  0
LINE
  5
411
  8
DATA
  6
CONTINUOUS
 62
     7
 10
-92.845650000000006
 20
-436.06769999999989
 30
0.0
 11
-77.499999999999986
 21
-427.55000000000001
 31
0.0
  0
LINE
  5
412
  8
DATA
  6
CONTINUOUS
 62
     7
 10
-122.0
 20
-452.24999999999989
 30
0.0
 11
-102.45507000000001
 21
-441.40146999999979
 31
0.0
  0
ARC
  5
413
  8
DATA
  6
CONTINUOUS
 62
     7
 10
-103.7978999999999
 20
-438.97894000000002
 30
0.0
 40
2.7979018947239509
 50
299.00000573478422
 51
119.0000057347843
  0
ARC
  5
414
  8
DATA
  6
CONTINUOUS
 62
     7
 10
-94.202099999999987
 20
-433.62060000000002
 30
0.0
 40
2.7979018947239509
 50
119.0000057347843
 51
299.00000573478422
  0
LINE
  5
415
  8
DATA
  6
CONTINUOUS
 62
     7
 10
-95.558549999999997
 20
-440.17349999999999
 30
0.0
 11
-77.499999999999986
 21
-430.14999999999992
 31
0.0
  0
LINE
  5
416
  8
DATA
  6
CONTINUOUS
 62
     7
 10
-122.0
 20
-454.8499999999998
 30
0.0
 11
-105.1679699999999
 21
-445.50727000000001
 31
0.0
  0
LINE
  5
417
  8
DATA
  6
CONTINUOUS
 62
     7
 10
-92.845650000000006
 20
-445.06769999999989
 30
0.0
 11
-77.499999999999986
 21
-436.5499999999999
 31
0.0
  0
LINE
  5
418
  8
DATA
  6
CONTINUOUS
 62
     7
 10
-122.0
 20
-461.24999999999989
 30
0.0
 11
-102.45507000000001
 21
-450.40146999999979
 31
0.0
  0
ARC
  5
419
  8
DATA
  6
CONTINUOUS
 62
     7
 10
-103.7978999999999
 20
-447.97894000000002
 30
0.0
 40
2.7979018947239509
 50
299.00000573478422
 51
119.0000057347843
  0
ARC
  5
41A
  8
DATA
  6
CONTINUOUS
 62
     7
 10
-94.202099999999987
 20
-442.62060000000002
 30
0.0
 40
2.7979018947239509
 50
119.0000057347843
 51
299.00000573478422
  0
LINE
  5
41B
  8
DATA
  6
CONTINUOUS
 62
     7
 10
-95.558549999999997
 20
-449.17349999999999
 30
0.0
 11
-77.499999999999986
 21
-439.14999999999992
 31
0.0
  0
LINE
  5
41C
  8
DATA
  6
CONTINUOUS
 62
     7
 10
-122.0
 20
-463.84999999999991
 30
0.0
 11
-105.1679699999999
 21
-454.50727000000001
 31
0.0
  0
LINE
  5
41D
  8
DATA
  6
CONTINUOUS
 62
     7
 10
-92.845650000000006
 20
-454.0677
 30
0.0
 11
-77.499999999999986
 21
-445.5499999999999
 31
0.0
  0
LINE
  5
41E
  8
DATA
  6
CONTINUOUS
 62
     7
 10
-122.0
 20
-470.24999999999989
 30
0.0
 11
-102.45507000000001
 21
-459.40146999999979
 31
0.0
  0
ARC
  5
41F
  8
DATA
  6
CONTINUOUS
 62
     7
 10
-103.7978999999999
 20
-456.97894000000002
 30
0.0
 40
2.7979018947239509
 50
299.00000573478422
 51
119.0000057347843
  0
ARC
  5
420
  8
DATA
  6
CONTINUOUS
 62
     7
 10
-94.202099999999987
 20
-451.62060000000002
 30
0.0
 40
2.7979018947239509
 50
119.0000057347843
 51
299.00000573478422
  0
LINE
  5
421
  8
DATA
  6
CONTINUOUS
 62
     7
 10
-95.558549999999997
 20
-458.17349999999999
 30
0.0
 11
-77.499999999999986
 21
-448.14999999999992
 31
0.0
  0
LINE
  5
422
  8
DATA
  6
CONTINUOUS
 62
     7
 10
-122.0
 20
-472.84999999999991
 30
0.0
 11
-105.1679699999999
 21
-463.50727000000001
 31
0.0
  0
LINE
  5
423
  8
DATA
  6
CONTINUOUS
 62
     7
 10
-92.845650000000006
 20
-463.0677
 30
0.0
 11
-77.499999999999986
 21
-454.55000000000001
 31
0.0
  0
LINE
  5
424
  8
DATA
  6
CONTINUOUS
 62
     7
 10
-122.0
 20
-479.24999999999989
 30
0.0
 11
-102.45507000000001
 21
-468.40146999999979
 31
0.0
  0
ARC
  5
425
  8
DATA
  6
CONTINUOUS
 62
     7
 10
-103.7978999999999
 20
-465.97894000000002
 30
0.0
 40
2.7979018947239509
 50
299.00000573478422
 51
119.0000057347843
  0
ARC
  5
426
  8
DATA
  6
CONTINUOUS
 62
     7
 10
-94.202099999999987
 20
-460.62060000000002
 30
0.0
 40
2.7979018947239509
 50
119.0000057347843
 51
299.00000573478422
  0
LINE
  5
427
  8
DATA
  6
CONTINUOUS
 62
     7
 10
-194.24999999999989
 20
-397.14999999999998
 30
0.0
 11
-122.25
 21
-397.14999999999998
 31
0.0
  0
LINE
  5
428
  8
DATA
  6
CONTINUOUS
 62
     7
 10
-216.75
 20
-379.14999999999998
 30
0.0
 11
-99.749999999999986
 21
-379.14999999999998
 31
0.0
  0
LINE
  5
429
  8
DATA
  6
CONTINUOUS
 62
     7
 10
-98.709559999999996
 20
-382.85807
 30
0.0
 11
-122.25
 21
-397.14999999999998
 31
0.0
  0
LINE
  5
42A
  8
DATA
  6
CONTINUOUS
 62
     7
 10
-194.24999999999989
 20
-397.14999999999998
 30
0.0
 11
-217.78792999999999
 21
-382.85958999999991
 31
0.0
  0
ARC
  5
42B
  8
DATA
  6
CONTINUOUS
 62
     7
 10
-216.75
 20
-381.14999999999998
 30
0.0
 40
2.0
 50
90.0
 51
238.78945937457709
  0
ARC
  5
42C
  8
DATA
  6
CONTINUOUS
 62
     7
 10
-99.749999999999986
 20
-381.14999999999998
 30
0.0
 40
2.000004629619653
 50
301.34692903028611
 51
90.000000000000028
  0
LINE
  5
42D
  8
DATA
  6
CONTINUOUS
 62
     7
 10
-362.5
 20
-491.8499999999998
 30
0.0
 11
-362.5
 21
-459.84999999999991
 31
0.0
  0
LINE
  5
42E
  8
DATA
  6
CONTINUOUS
 62
     7
 10
46.0
 20
-491.8499999999998
 30
0.0
 11
-362.5
 21
-491.8499999999998
 31
0.0
  0
LINE
  5
42F
  8
DATA
  6
CONTINUOUS
 62
     7
 10
-239.0
 20
-459.84999999999991
 30
0.0
 11
-362.5
 21
-459.84999999999991
 31
0.0
  0
LINE
  5
430
  8
DATA
  6
CONTINUOUS
 62
     7
 10
-122.0
 20
-484.55000000000001
 30
0.0
 11
-194.5
 21
-484.55000000000001
 31
0.0
  0
LINE
  5
431
  8
DATA
  6
CONTINUOUS
 62
     7
 10
-239.0
 20
-459.84999999999991
 30
0.0
 11
-194.5
 21
-484.55000000000001
 31
0.0
  0
LINE
  5
432
  8
DATA
  6
CONTINUOUS
 62
     7
 10
-77.499999999999986
 20
-459.84999999999991
 30
0.0
 11
-122.0
 21
-484.55000000000001
 31
0.0
  0
LINE
  5
433
  8
DATA
  6
CONTINUOUS
 62
     7
 10
-77.499999999999986
 20
-459.84999999999991
 30
0.0
 11
46.0
 21
-459.84999999999991
 31
0.0
  0
LINE
  5
434
  8
DATA
  6
CONTINUOUS
 62
     7
 10
46.0
 20
-459.84999999999991
 30
0.0
 11
46.0
 21
-491.8499999999998
 31
0.0
  0
TEXT
  5
435
  8
DATA
 62
     7
 10
-350.19999999999987
 20
-472.1091662
 30
0.0
 40
4.0721054296875003
  1
Off
 41
0.7
 11
-350.19999999999987
 21
-468.03706077031251
 31
0.0
 73
     3
  0
TEXT
  5
436
  8
DATA
 62
     7
 10
-325.49166999999989
 20
-472.1091662
 30
0.0
 40
4.0721054296875003
  1
On
 41
0.7
 11
-325.49166999999989
 21
-468.03706077031251
 31
0.0
 73
     3
  0
LINE
  5
437
  8
DATA
  6
CONTINUOUS
 62
     7
 10
-304.99999999999989
 20
-478.59999999999991
 30
0.0
 11
-304.99999999999989
 21
-481.09999999999991
 31
0.0
  0
LINE
  5
438
  8
DATA
  6
CONTINUOUS
 62
     7
 10
-291.5
 20
-481.09999999999991
 30
0.0
 11
-291.5
 21
-478.59999999999991
 31
0.0
  0
ARC
  5
439
  8
DATA
  6
CONTINUOUS
 62
     7
 10
-298.24999999999989
 20
-481.09999999999991
 30
0.0
 40
6.75
 50
180.0
 51
0.0
  0
ARC
  5
43A
  8
DATA
  6
CONTINUOUS
 62
     7
 10
-298.24999999999989
 20
-478.59999999999991
 30
0.0
 40
6.75
 50
0.0
 51
180.0
  0
CIRCLE
  5
43B
  8
DATA
  6
CONTINUOUS
 62
     7
 10
-298.24999999999989
 20
-479.8499999999998
 30
0.0
 40
3.0
  0
TEXT
  5
43C
  8
DATA
 62
     7
 10
-304.86459000000002
 20
-469.10916619999989
 30
0.0
 40
4.0721054296875003
  1
Reset
 41
0.7
 11
-304.86459000000002
 21
-465.03706077031239
 31
0.0
 73
     3
  0
CIRCLE
  5
43D
  8
DATA
  6
CONTINUOUS
 62
     7
 10
-98.75
 20
-485.84999999999991
 30
0.0
 40
3.0
  0
CIRCLE
  5
43E
  8
DATA
  6
CONTINUOUS
 62
     7
 10
-75.749999999999986
 20
-485.84999999999991
 30
0.0
 40
3.0
  0
CIRCLE
  5
43F
  8
DATA
  6
CONTINUOUS
 62
     7
 10
-64.749999999999986
 20
-485.84999999999991
 30
0.0
 40
3.0
  0
CIRCLE
  5
440
  8
DATA
  6
CONTINUOUS
 62
     7
 10
-52.749999999999993
 20
-485.84999999999991
 30
0.0
 40
3.0
  0
CIRCLE
  5
441
  8
DATA
  6
CONTINUOUS
 62
     7
 10
-32.999999999999993
 20
-477.84999999999991
 30
0.0
 40
7.5
  0
LINE
  5
442
  8
DATA
  6
CONTINUOUS
 62
     7
 10
-31.342359999999999
 20
-470.5354999999999
 30
0.0
 11
-40.314550000000011
 21
-479.5076899999998
 31
0.0
  0
LINE
  5
443
  8
DATA
  6
CONTINUOUS
 62
     7
 10
-25.685500000000001
 20
-476.19235999999989
 30
0.0
 11
-34.657689999999988
 21
-485.16455000000002
 31
0.0
  0
LINE
  5
444
  8
DATA
  6
CONTINUOUS
 62
     7
 10
-32.999999999999993
 20
-477.84999999999991
 30
0.0
 11
-38.3033
 21
-483.1533
 31
0.0
  0
CIRCLE
  5
445
  8
DATA
  6
CONTINUOUS
 62
     7
 10
-11.750000000000011
 20
-485.84999999999991
 30
0.0
 40
3.0
  0
CIRCLE
  5
446
  8
DATA
  6
CONTINUOUS
 62
     7
 10
-0.7500000000000142
 20
-485.84999999999991
 30
0.0
 40
3.0
  0
CIRCLE
  5
447
  8
DATA
  6
CONTINUOUS
 62
     7
 10
11.24999999999998
 20
-485.84999999999991
 30
0.0
 40
3.0
  0
TEXT
  5
448
  8
DATA
 62
     7
 10
-102.05728999999999
 20
-480.4795838
 30
0.0
 40
2.0360488671875001
  1
Power
 41
0.7
 11
-102.05728999999999
 21
-478.44353493281238
 31
0.0
 73
     3
  0
TEXT
  5
449
  8
DATA
 62
     7
 10
-79.718749999999986
 20
-480.4795838
 30
0.0
 40
2.0360488671875001
  1
Signal
 41
0.7
 11
-79.718749999999986
 21
-478.44353493281238
 31
0.0
 73
     3
  0
TEXT
  5
44A
  8
DATA
 62
     7
 10
-67.395830000000004
 20
-480.4795838
 30
0.0
 40
2.0360488671875001
  1
Clip
 41
0.7
 11
-67.395830000000004
 21
-478.44353493281238
 31
0.0
 73
     3
  0
TEXT
  5
44B
  8
DATA
 62
     7
 10
-56.057290000000009
 20
-480.4795838
 30
0.0
 40
2.0360488671875001
  1
Fault
 41
0.7
 11
-56.057290000000009
 21
-478.44353493281238
 31
0.0
 73
     3
  0
LINE
  5
44C
  8
DATA
  6
CONTINUOUS
 62
     7
 10
-77.249999999999986
 20
-476.84999999999991
 30
0.0
 11
-53.249999999999993
 21
-476.84999999999991
 31
0.0
  0
LINE
  5
44D
  8
DATA
  6
CONTINUOUS
 62
     7
 10
-77.249999999999986
 20
-476.84999999999991
 30
0.0
 11
-77.249999999999986
 21
-477.84999999999991
 31
0.0
  0
CIRCLE
  5
44E
  8
DATA
  6
CONTINUOUS
 62
     7
 10
-32.999999999999993
 20
-468.34999999999991
 30
0.0
 40
0.5
  0
CIRCLE
  5
44F
  8
DATA
  6
CONTINUOUS
 62
     7
 10
-35.458780000000012
 20
-468.67370999999991
 30
0.0
 40
0.5
  0
CIRCLE
  5
450
  8
DATA
  6
CONTINUOUS
 62
     7
 10
-37.749999999999993
 20
-469.62276000000003
 30
0.0
 40
0.5
  0
CIRCLE
  5
451
  8
DATA
  6
CONTINUOUS
 62
     7
 10
-39.71750999999999
 20
-471.13249000000002
 30
0.0
 40
0.5
  0
CIRCLE
  5
452
  8
DATA
  6
CONTINUOUS
 62
     7
 10
-41.227240000000002
 20
-473.0999999999998
 30
0.0
 40
0.5
  0
CIRCLE
  5
453
  8
DATA
  6
CONTINUOUS
 62
     7
 10
-42.176290000000009
 20
-475.39121999999998
 30
0.0
 40
0.5
  0
CIRCLE
  5
454
  8
DATA
  6
CONTINUOUS
 62
     7
 10
-42.499999999999993
 20
-477.84999999999991
 30
0.0
 40
0.5
  0
CIRCLE
  5
455
  8
DATA
  6
CONTINUOUS
 62
     7
 10
-37.749999999999993
 20
-486.07724000000002
 30
0.0
 40
0.5
  0
CIRCLE
  5
456
  8
DATA
  6
CONTINUOUS
 62
     7
 10
-39.71750999999999
 20
-484.56751000000003
 30
0.0
 40
0.5
  0
CIRCLE
  5
457
  8
DATA
  6
CONTINUOUS
 62
     7
 10
-41.227240000000002
 20
-482.59999999999991
 30
0.0
 40
0.5
  0
CIRCLE
  5
458
  8
DATA
  6
CONTINUOUS
 62
     7
 10
-42.176290000000009
 20
-480.30878000000001
 30
0.0
 40
0.5
  0
CIRCLE
  5
459
  8
DATA
  6
CONTINUOUS
 62
     7
 10
-30.541219999999999
 20
-468.67370999999991
 30
0.0
 40
0.5
  0
CIRCLE
  5
45A
  8
DATA
  6
CONTINUOUS
 62
     7
 10
-28.249999999999989
 20
-469.62276000000003
 30
0.0
 40
0.5
  0
CIRCLE
  5
45B
  8
DATA
  6
CONTINUOUS
 62
     7
 10
-26.28249000000001
 20
-471.13249000000002
 30
0.0
 40
0.5
  0
CIRCLE
  5
45C
  8
DATA
  6
CONTINUOUS
 62
     7
 10
-24.772759999999991
 20
-473.0999999999998
 30
0.0
 40
0.5
  0
CIRCLE
  5
45D
  8
DATA
  6
CONTINUOUS
 62
     7
 10
-23.823709999999991
 20
-475.39121999999998
 30
0.0
 40
0.5
  0
CIRCLE
  5
45E
  8
DATA
  6
CONTINUOUS
 62
     7
 10
-23.499999999999989
 20
-477.84999999999991
 30
0.0
 40
0.5
  0
CIRCLE
  5
45F
  8
DATA
  6
CONTINUOUS
 62
     7
 10
-28.249999999999989
 20
-486.07724000000002
 30
0.0
 40
0.5
  0
CIRCLE
  5
460
  8
DATA
  6
CONTINUOUS
 62
     7
 10
-26.28249000000001
 20
-484.56751000000003
 30
0.0
 40
0.5
  0
CIRCLE
  5
461
  8
DATA
  6
CONTINUOUS
 62
     7
 10
-24.772759999999991
 20
-482.59999999999991
 30
0.0
 40
0.5
  0
CIRCLE
  5
462
  8
DATA
  6
CONTINUOUS
 62
     7
 10
-23.823709999999991
 20
-480.30878000000001
 30
0.0
 40
0.5
  0
TEXT
  5
463
  8
DATA
 62
     7
 10
-40.895829999999997
 20
-468.75234379999978
 30
0.0
 40
2.0360488671875001
  1
17
 41
0.7
 11
-40.895829999999997
 21
-466.71629493281227
 31
0.0
 73
     3
  0
TEXT
  5
464
  8
DATA
 62
     7
 10
-27.749999999999989
 20
-468.75234379999978
 30
0.0
 40
2.0360488671875001
  1
9
 41
0.7
 11
-27.749999999999989
 21
-466.71629493281227
 31
0.0
 73
     3
  0
TEXT
  5
465
  8
DATA
 62
     7
 10
-21.999999999999989
 20
-478.80250379999978
 30
0.0
 40
2.0360488671875001
  1
2
 41
0.7
 11
-21.999999999999989
 21
-476.76645493281228
 31
0.0
 73
     3
  0
TEXT
  5
466
  8
DATA
 62
     7
 10
-40.895829999999997
 20
-488.85265379999981
 30
0.0
 40
2.0360488671875001
  1
∞
 41
0.7
 11
-40.895829999999997
 21
-486.81660493281231
 31
0.0
 73
     3
  0
TEXT
  5
467
  8
DATA
 62
     7
 10
-27.749999999999989
 20
-488.85265379999981
 30
0.0
 40
2.0360488671875001
  1
0
 41
0.7
 11
-27.749999999999989
 21
-486.81660493281231
 31
0.0
 73
     3
  0
CIRCLE
  5
468
  8
DATA
  6
CONTINUOUS
 62
     7
 10
31.0
 20
-477.84999999999991
 30
0.0
 40
7.5
  0
LINE
  5
469
  8
DATA
  6
CONTINUOUS
 62
     7
 10
32.657640000000001
 20
-470.5354999999999
 30
0.0
 11
23.68545000000001
 21
-479.5076899999998
 31
0.0
  0
LINE
  5
46A
  8
DATA
  6
CONTINUOUS
 62
     7
 10
38.314500000000002
 20
-476.19235999999989
 30
0.0
 11
29.342310000000001
 21
-485.16455000000002
 31
0.0
  0
LINE
  5
46B
  8
DATA
  6
CONTINUOUS
 62
     7
 10
31.0
 20
-477.84999999999991
 30
0.0
 11
25.6967
 21
-483.1533
 31
0.0
  0
TEXT
  5
46C
  8
DATA
 62
     7
 10
-15.71874999999998
 20
-480.4795838
 30
0.0
 40
2.0360488671875001
  1
Signal
 41
0.7
 11
-15.71874999999998
 21
-478.44353493281238
 31
0.0
 73
     3
  0
TEXT
  5
46D
  8
DATA
 62
     7
 10
-3.3958300000000041
 20
-480.4795838
 30
0.0
 40
2.0360488671875001
  1
Clip
 41
0.7
 11
-3.3958300000000041
 21
-478.44353493281238
 31
0.0
 73
     3
  0
TEXT
  5
46E
  8
DATA
 62
     7
 10
7.9427099999999902
 20
-480.4795838
 30
0.0
 40
2.0360488671875001
  1
Fault
 41
0.7
 11
7.9427099999999902
 21
-478.44353493281238
 31
0.0
 73
     3
  0
LINE
  5
46F
  8
DATA
  6
CONTINUOUS
 62
     7
 10
-13.24999999999998
 20
-476.84999999999991
 30
0.0
 11
10.74999999999998
 21
-476.84999999999991
 31
0.0
  0
LINE
  5
470
  8
DATA
  6
CONTINUOUS
 62
     7
 10
-13.24999999999998
 20
-476.84999999999991
 30
0.0
 11
-13.24999999999998
 21
-477.84999999999991
 31
0.0
  0
CIRCLE
  5
471
  8
DATA
  6
CONTINUOUS
 62
     7
 10
31.0
 20
-468.34999999999991
 30
0.0
 40
0.5
  0
CIRCLE
  5
472
  8
DATA
  6
CONTINUOUS
 62
     7
 10
28.541219999999999
 20
-468.67370999999991
 30
0.0
 40
0.5
  0
CIRCLE
  5
473
  8
DATA
  6
CONTINUOUS
 62
     7
 10
26.25
 20
-469.62276000000003
 30
0.0
 40
0.5
  0
CIRCLE
  5
474
  8
DATA
  6
CONTINUOUS
 62
     7
 10
24.282489999999999
 20
-471.13249000000002
 30
0.0
 40
0.5
  0
CIRCLE
  5
475
  8
DATA
  6
CONTINUOUS
 62
     7
 10
22.772759999999991
 20
-473.0999999999998
 30
0.0
 40
0.5
  0
CIRCLE
  5
476
  8
DATA
  6
CONTINUOUS
 62
     7
 10
21.823709999999991
 20
-475.39121999999998
 30
0.0
 40
0.5
  0
CIRCLE
  5
477
  8
DATA
  6
CONTINUOUS
 62
     7
 10
21.499999999999989
 20
-477.84999999999991
 30
0.0
 40
0.5000000000000142
  0
CIRCLE
  5
478
  8
DATA
  6
CONTINUOUS
 62
     7
 10
26.25
 20
-486.07724000000002
 30
0.0
 40
0.5
  0
CIRCLE
  5
479
  8
DATA
  6
CONTINUOUS
 62
     7
 10
24.282489999999999
 20
-484.56751000000003
 30
0.0
 40
0.5
  0
CIRCLE
  5
47A
  8
DATA
  6
CONTINUOUS
 62
     7
 10
22.772759999999991
 20
-482.59999999999991
 30
0.0
 40
0.5
  0
CIRCLE
  5
47B
  8
DATA
  6
CONTINUOUS
 62
     7
 10
21.823709999999991
 20
-480.30878000000001
 30
0.0
 40
0.5
  0
CIRCLE
  5
47C
  8
DATA
  6
CONTINUOUS
 62
     7
 10
33.45877999999999
 20
-468.67370999999991
 30
0.0
 40
0.5
  0
CIRCLE
  5
47D
  8
DATA
  6
CONTINUOUS
 62
     7
 10
35.75
 20
-469.62276000000003
 30
0.0
 40
0.5
  0
CIRCLE
  5
47E
  8
DATA
  6
CONTINUOUS
 62
     7
 10
37.71750999999999
 20
-471.13249000000002
 30
0.0
 40
0.5
  0
CIRCLE
  5
47F
  8
DATA
  6
CONTINUOUS
 62
     7
 10
39.227240000000002
 20
-473.0999999999998
 30
0.0
 40
0.5
  0
CIRCLE
  5
480
  8
DATA
  6
CONTINUOUS
 62
     7
 10
40.176290000000002
 20
-475.39121999999998
 30
0.0
 40
0.5
  0
CIRCLE
  5
481
  8
DATA
  6
CONTINUOUS
 62
     7
 10
40.499999999999993
 20
-477.84999999999991
 30
0.0
 40
0.5
  0
CIRCLE
  5
482
  8
DATA
  6
CONTINUOUS
 62
     7
 10
35.75
 20
-486.07724000000002
 30
0.0
 40
0.5
  0
CIRCLE
  5
483
  8
DATA
  6
CONTINUOUS
 62
     7
 10
37.71750999999999
 20
-484.56751000000003
 30
0.0
 40
0.5
  0
CIRCLE
  5
484
  8
DATA
  6
CONTINUOUS
 62
     7
 10
39.227240000000002
 20
-482.59999999999991
 30
0.0
 40
0.5
  0
CIRCLE
  5
485
  8
DATA
  6
CONTINUOUS
 62
     7
 10
40.176290000000002
 20
-480.30878000000001
 30
0.0
 40
0.5
  0
TEXT
  5
486
  8
DATA
 62
     7
 10
23.10417
 20
-468.75234379999978
 30
0.0
 40
2.0360488671875001
  1
17
 41
0.7
 11
23.10417
 21
-466.71629493281227
 31
0.0
 73
     3
  0
TEXT
  5
487
  8
DATA
 62
     7
 10
36.25
 20
-468.75234379999978
 30
0.0
 40
2.0360488671875001
  1
9
 41
0.7
 11
36.25
 21
-466.71629493281227
 31
0.0
 73
     3
  0
TEXT
  5
488
  8
DATA
 62
     7
 10
42.0
 20
-478.80250379999978
 30
0.0
 40
2.0360488671875001
  1
2
 41
0.7
 11
42.0
 21
-476.76645493281228
 31
0.0
 73
     3
  0
TEXT
  5
489
  8
DATA
 62
     7
 10
17.354169999999989
 20
-478.80250379999978
 30
0.0
 40
2.0360488671875001
  1
33
 41
0.7
 11
17.354169999999989
 21
-476.76645493281228
 31
0.0
 73
     3
  0
TEXT
  5
48A
  8
DATA
 62
     7
 10
23.10417
 20
-488.85265379999981
 30
0.0
 40
2.0360488671875001
  1
∞
 41
0.7
 11
23.10417
 21
-486.81660493281231
 31
0.0
 73
     3
  0
TEXT
  5
48B
  8
DATA
 62
     7
 10
36.25
 20
-488.85265379999981
 30
0.0
 40
2.0360488671875001
  1
0
 41
0.7
 11
36.25
 21
-486.81660493281231
 31
0.0
 73
     3
  0
TEXT
  5
48C
  8
DATA
 62
     7
 10
-46.645829999999989
 20
-478.80250379999978
 30
0.0
 40
2.0360488671875001
  1
33
 41
0.7
 11
-46.645829999999989
 21
-476.76645493281228
 31
0.0
 73
     3
  0
TEXT
  5
48D
  8
DATA
 62
     7
 10
-52.249999999999993
 20
-476.6091662
 30
0.0
 40
4.0721054296875003
  1
1
 41
0.7
 11
-52.249999999999993
 21
-472.53706077031251
 31
0.0
 73
     3
  0
TEXT
  5
48E
  8
DATA
 62
     7
 10
11.74999999999998
 20
-476.6091662
 30
0.0
 40
4.0721054296875003
  1
2
 41
0.7
 11
11.74999999999998
 21
-472.53706077031251
 31
0.0
 73
     3
  0
LINE
  5
48F
  8
DATA
  6
CONTINUOUS
 62
     7
 10
58.5
 20
-225.5
 30
0.0
 11
58.5
 21
60.999999999999972
 31
0.0
  0
LINE
  5
490
  8
DATA
  6
CONTINUOUS
 62
     7
 10
55.699999999999989
 20
-250.0
 30
0.0
 11
83.499999999999986
 21
-250.0
 31
0.0
  0
LINE
  5
491
  8
DATA
  6
CONTINUOUS
 62
     7
 10
-400.0
 20
-250.0
 30
0.0
 11
-369.19999999999987
 21
-250.0
 31
0.0
  0
LINE
  5
492
  8
DATA
  6
CONTINUOUS
 62
     7
 10
-400.0
 20
-250.0
 30
0.0
 11
-400.0
 21
-246.0
 31
0.0
  0
LINE
  5
493
  8
DATA
  6
CONTINUOUS
 62
     7
 10
83.499999999999986
 20
-250.0
 30
0.0
 11
83.499999999999986
 21
-246.0
 31
0.0
  0
LINE
  5
494
  8
DATA
  6
CONTINUOUS
 62
     7
 10
-371.25
 20
-244.0
 30
0.0
 11
54.75
 21
-244.0
 31
0.0
  0
LINE
  5
495
  8
DATA
  6
CONTINUOUS
 62
     7
 10
-346.29093
 20
-244.0
 30
0.0
 11
-328.69999999999987
 21
-248.5
 31
0.0
  0
LINE
  5
496
  8
DATA
  6
CONTINUOUS
 62
     7
 10
-328.69999999999987
 20
-248.5
 30
0.0
 11
-321.74545000000001
 21
-244.0
 31
0.0
  0
LINE
  5
497
  8
DATA
  6
CONTINUOUS
 62
     7
 10
-304.99999999999989
 20
-244.5
 30
0.0
 11
-291.5
 21
-244.5
 31
0.0
  0
LINE
  5
498
  8
DATA
  6
CONTINUOUS
 62
     7
 10
-291.5
 20
-244.5
 30
0.0
 11
-291.5
 21
-244.0
 31
0.0
  0
LINE
  5
499
  8
DATA
  6
CONTINUOUS
 62
     7
 10
-304.99999999999989
 20
-244.5
 30
0.0
 11
-304.99999999999989
 21
-244.0
 31
0.0
  0
LINE
  5
49A
  8
DATA
  6
CONTINUOUS
 62
     7
 10
-25.685500000000001
 20
-255.0
 30
0.0
 11
-25.685500000000001
 21
-244.0
 31
0.0
  0
LINE
  5
49B
  8
DATA
  6
CONTINUOUS
 62
     7
 10
-40.314550000000011
 20
-255.0
 30
0.0
 11
-40.314550000000011
 21
-244.0
 31
0.0
  0
LINE
  5
49C
  8
DATA
  6
CONTINUOUS
 62
     7
 10
-40.314550000000011
 20
-255.0
 30
0.0
 11
-25.685500000000001
 21
-255.0
 31
0.0
  0
LINE
  5
49D
  8
DATA
  6
CONTINUOUS
 62
     7
 10
38.314500000000002
 20
-255.0
 30
0.0
 11
38.314500000000002
 21
-244.0
 31
0.0
  0
LINE
  5
49E
  8
DATA
  6
CONTINUOUS
 62
     7
 10
23.68545000000001
 20
-255.0
 30
0.0
 11
23.68545000000001
 21
-244.0
 31
0.0
  0
LINE
  5
49F
  8
DATA
  6
CONTINUOUS
 62
     7
 10
23.68545000000001
 20
-255.0
 30
0.0
 11
38.314500000000002
 21
-255.0
 31
0.0
  0
LINE
  5
4A0
  8
DATA
  6
CONTINUOUS
 62
     7
 10
-31.342359999999999
 20
-255.0
 30
0.0
 11
-31.342359999999999
 21
-245.5
 31
0.0
  0
LINE
  5
4A1
  8
DATA
  6
CONTINUOUS
 62
     7
 10
32.657640000000001
 20
-255.0
 30
0.0
 11
32.657640000000001
 21
-245.5
 31
0.0
  0
LINE
  5
4A2
  8
DATA
  6
CONTINUOUS
 62
     7
 10
-40.314550000000011
 20
-245.5
 30
0.0
 11
-25.685500000000001
 21
-245.5
 31
0.0
  0
LINE
  5
4A3
  8
DATA
  6
CONTINUOUS
 62
     7
 10
23.68545000000001
 20
-245.5
 30
0.0
 11
38.314500000000002
 21
-245.5
 31
0.0
  0
LINE
  5
4A4
  8
DATA
  6
CONTINUOUS
 62
     7
 10
-375.0
 20
-225.5
 30
0.0
 11
-375.0
 21
60.999999999999972
 31
0.0
  0
LINE
  5
4A5
  8
DATA
  6
CONTINUOUS
 62
     7
 10
58.5
 20
60.999999999999972
 30
0.0
 11
-375.0
 21
60.999999999999972
 31
0.0
  0
LINE
  5
4A6
  8
DATA
  6
CONTINUOUS
 62
     7
 10
-377.5
 20
-188.0
 30
0.0
 11
-375.0
 21
-188.0
 31
0.0
  0
LINE
  5
4A7
  8
DATA
  6
CONTINUOUS
 62
     7
 10
-377.5
 20
-188.0
 30
0.0
 11
-377.5
 21
-195.0
 31
0.0
  0
LINE
  5
4A8
  8
DATA
  6
CONTINUOUS
 62
     7
 10
-377.5
 20
-195.0
 30
0.0
 11
-375.0
 21
-195.0
 31
0.0
  0
LINE
  5
4A9
  8
DATA
  6
CONTINUOUS
 62
     7
 10
-377.5
 20
2.9999999999999711
 30
0.0
 11
-375.0
 21
2.9999999999999711
 31
0.0
  0
LINE
  5
4AA
  8
DATA
  6
CONTINUOUS
 62
     7
 10
-377.5
 20
2.9999999999999711
 30
0.0
 11
-377.5
 21
-4.0000000000000284
 31
0.0
  0
LINE
  5
4AB
  8
DATA
  6
CONTINUOUS
 62
     7
 10
-377.5
 20
-4.0000000000000284
 30
0.0
 11
-375.0
 21
-4.0000000000000284
 31
0.0
  0
LINE
  5
4AC
  8
DATA
  6
CONTINUOUS
 62
     7
 10
61.0
 20
-188.0
 30
0.0
 11
58.5
 21
-188.0
 31
0.0
  0
LINE
  5
4AD
  8
DATA
  6
CONTINUOUS
 62
     7
 10
61.0
 20
-188.0
 30
0.0
 11
61.0
 21
-195.0
 31
0.0
  0
LINE
  5
4AE
  8
DATA
  6
CONTINUOUS
 62
     7
 10
61.0
 20
-195.0
 30
0.0
 11
58.5
 21
-195.0
 31
0.0
  0
LINE
  5
4AF
  8
DATA
  6
CONTINUOUS
 62
     7
 10
61.0
 20
2.9999999999999711
 30
0.0
 11
58.5
 21
2.9999999999999711
 31
0.0
  0
LINE
  5
4B0
  8
DATA
  6
CONTINUOUS
 62
     7
 10
61.0
 20
2.9999999999999711
 30
0.0
 11
61.0
 21
-4.0000000000000284
 31
0.0
  0
LINE
  5
4B1
  8
DATA
  6
CONTINUOUS
 62
     7
 10
61.0
 20
-4.0000000000000284
 30
0.0
 11
58.5
 21
-4.0000000000000284
 31
0.0
  0
LINE
  5
4B2
  8
DATA
  6
CONTINUOUS
 62
     7
 10
-369.19999999999987
 20
-250.0
 30
0.0
 11
-369.19999999999987
 21
-244.0
 31
0.0
  0
LINE
  5
4B3
  8
DATA
  6
CONTINUOUS
 62
     7
 10
52.699999999999989
 20
-247.0
 30
0.0
 11
52.699999999999989
 21
-244.0
 31
0.0
  0
LINE
  5
4B4
  8
DATA
  6
CONTINUOUS
 62
     7
 10
-369.5
 20
-229.5
 30
0.0
 11
53.0
 21
-229.5
 31
0.0
  0
LINE
  5
4B5
  8
DATA
  6
CONTINUOUS
 62
     7
 10
-373.25
 20
-246.0
 30
0.0
 11
-373.25
 21
-225.5
 31
0.0
  0
LINE
  5
4B6
  8
DATA
  6
CONTINUOUS
 62
     7
 10
-375.0
 20
-225.5
 30
0.0
 11
-371.64999999999998
 21
-225.5
 31
0.0
  0
LINE
  5
4B7
  8
DATA
  6
CONTINUOUS
 62
     7
 10
56.75
 20
-246.0
 30
0.0
 11
56.75
 21
-225.5
 31
0.0
  0
LINE
  5
4B8
  8
DATA
  6
CONTINUOUS
 62
     7
 10
58.5
 20
-225.5
 30
0.0
 11
55.149999999999991
 21
-225.5
 31
0.0
  0
LINE
  5
4B9
  8
DATA
  6
CONTINUOUS
 62
     7
 10
53.0
 20
-229.5
 30
0.0
 11
53.0
 21
-244.0
 31
0.0
  0
ARC
  5
4BA
  8
DATA
  6
CONTINUOUS
 62
     7
 10
55.699999999999989
 20
-247.0
 30
0.0
 40
3.0
 50
180.0
 51
270.0
  0
LINE
  5
4BB
  8
DATA
  6
CONTINUOUS
 62
     7
 10
55.149999999999991
 20
-247.59999999999999
 30
0.0
 11
55.149999999999991
 21
-225.5
 31
0.0
  0
LINE
  5
4BC
  8
DATA
  6
CONTINUOUS
 62
     7
 10
-371.64999999999998
 20
-247.59999999999999
 30
0.0
 11
-371.64999999999998
 21
-225.5
 31
0.0
  0
LINE
  5
4BD
  8
DATA
  6
CONTINUOUS
 62
     7
 10
54.75
 20
-248.0
 30
0.0
 11
83.499999999999986
 21
-248.0
 31
0.0
  0
LINE
  5
4BE
  8
DATA
  6
CONTINUOUS
 62
     7
 10
56.75
 20
-246.0
 30
0.0
 11
83.499999999999986
 21
-246.0
 31
0.0
  0
LINE
  5
4BF
  8
DATA
  6
CONTINUOUS
 62
     7
 10
-400.0
 20
-248.0
 30
0.0
 11
-371.25
 21
-248.0
 31
0.0
  0
LINE
  5
4C0
  8
DATA
  6
CONTINUOUS
 62
     7
 10
-400.0
 20
-246.0
 30
0.0
 11
-373.25
 21
-246.0
 31
0.0
  0
LINE
  5
4C1
  8
DATA
  6
CONTINUOUS
 62
     7
 10
-369.5
 20
-229.5
 30
0.0
 11
-369.5
 21
-244.0
 31
0.0
  0
LINE
  5
4C2
  8
DATA
  6
CONTINUOUS
 62
     7
 10
150.0
 20
-499.99999999999989
 30
0.0
 11
150.0
 21
-367.0
 31
0.0
  0
LINE
  5
4C3
  8
DATA
  6
CONTINUOUS
 62
     7
 10
152.0
 20
-499.99999999999989
 30
0.0
 11
152.0
 21
-367.0
 31
0.0
  0
LINE
  5
4C4
  8
DATA
  6
CONTINUOUS
 62
     7
 10
154.0
 20
-499.99999999999989
 30
0.0
 11
154.0
 21
-367.0
 31
0.0
  0
LINE
  5
4C5
  8
DATA
  6
CONTINUOUS
 62
     7
 10
150.0
 20
-367.0
 30
0.0
 11
461.0
 21
-367.0
 31
0.0
  0
LINE
  5
4C6
  8
DATA
  6
CONTINUOUS
 62
     7
 10
150.0
 20
-499.99999999999989
 30
0.0
 11
461.0
 21
-499.99999999999989
 31
0.0
  0
LINE
  5
4C7
  8
DATA
  6
CONTINUOUS
 62
     7
 10
461.0
 20
-499.99999999999989
 30
0.0
 11
461.0
 21
-367.0
 31
0.0
  0
ARC
  5
4C8
  8
DATA
  6
CONTINUOUS
 62
     7
 10
-392.25
 20
-404.9249999999999
 30
0.0
 40
3.5
 50
90.0
 51
270.0
  0
ARC
  5
4C9
  8
DATA
  6
CONTINUOUS
 62
     7
 10
-389.25
 20
-404.9249999999999
 30
0.0
 40
3.5
 50
270.0
 51
90.0
  0
LINE
  5
4CA
  8
DATA
  6
CONTINUOUS
 62
     7
 10
-392.25
 20
-401.42500000000001
 30
0.0
 11
-389.25
 21
-401.42500000000001
 31
0.0
  0
LINE
  5
4CB
  8
DATA
  6
CONTINUOUS
 62
     7
 10
-389.25
 20
-408.4249999999999
 30
0.0
 11
-392.25
 21
-408.4249999999999
 31
0.0
  0
ARC
  5
4CC
  8
DATA
  6
CONTINUOUS
 62
     7
 10
-392.25
 20
-462.07499999999987
 30
0.0
 40
3.5
 50
90.0
 51
270.0
  0
ARC
  5
4CD
  8
DATA
  6
CONTINUOUS
 62
     7
 10
-389.25
 20
-462.07499999999987
 30
0.0
 40
3.5
 50
270.0
 51
90.0
  0
LINE
  5
4CE
  8
DATA
  6
CONTINUOUS
 62
     7
 10
-392.25
 20
-458.57499999999987
 30
0.0
 11
-389.25
 21
-458.57499999999987
 31
0.0
  0
LINE
  5
4CF
  8
DATA
  6
CONTINUOUS
 62
     7
 10
-389.25
 20
-465.57499999999987
 30
0.0
 11
-392.25
 21
-465.57499999999987
 31
0.0
  0
ARC
  5
4D0
  8
DATA
  6
CONTINUOUS
 62
     7
 10
72.749999999999986
 20
-404.9249999999999
 30
0.0
 40
3.5
 50
90.0
 51
270.0
  0
ARC
  5
4D1
  8
DATA
  6
CONTINUOUS
 62
     7
 10
75.749999999999986
 20
-404.9249999999999
 30
0.0
 40
3.5
 50
270.0
 51
90.0
  0
LINE
  5
4D2
  8
DATA
  6
CONTINUOUS
 62
     7
 10
72.749999999999986
 20
-401.42500000000001
 30
0.0
 11
75.749999999999986
 21
-401.42500000000001
 31
0.0
  0
LINE
  5
4D3
  8
DATA
  6
CONTINUOUS
 62
     7
 10
75.749999999999986
 20
-408.4249999999999
 30
0.0
 11
72.749999999999986
 21
-408.4249999999999
 31
0.0
  0
ARC
  5
4D4
  8
DATA
  6
CONTINUOUS
 62
     7
 10
72.749999999999986
 20
-462.07499999999987
 30
0.0
 40
3.5
 50
90.0
 51
270.0
  0
ARC
  5
4D5
  8
DATA
  6
CONTINUOUS
 62
     7
 10
75.749999999999986
 20
-462.07499999999987
 30
0.0
 40
3.5
 50
270.0
 51
90.0
  0
LINE
  5
4D6
  8
DATA
  6
CONTINUOUS
 62
     7
 10
72.749999999999986
 20
-458.57499999999987
 30
0.0
 11
75.749999999999986
 21
-458.57499999999987
 31
0.0
  0
LINE
  5
4D7
  8
DATA
  6
CONTINUOUS
 62
     7
 10
75.749999999999986
 20
-465.57499999999987
 30
0.0
 11
72.749999999999986
 21
-465.57499999999987
 31
0.0
  0
LINE
  5
4D8
  8
DATA
  6
CONTINUOUS
 62
     7
 10
174.5
 20
-381.0
 30
0.0
 11
461.0
 21
-381.0
 31
0.0
  0
LINE
  5
4D9
  8
DATA
  6
CONTINUOUS
 62
     7
 10
174.5
 20
-367.0
 30
0.0
 11
174.5
 21
-381.0
 31
0.0
  0
CIRCLE
  5
4DA
  8
DATA
  6
CONTINUOUS
 62
     7
 10
208.5
 20
-375.0
 30
0.0
 40
3.5
  0
LINE
  5
4DB
  8
DATA
  6
CONTINUOUS
 62
     7
 10
206.5
 20
-375.0
 30
0.0
 11
210.5
 21
-375.0
 31
0.0
  0
LINE
  5
4DC
  8
DATA
  6
CONTINUOUS
 62
     7
 10
208.5
 20
-377.0
 30
0.0
 11
208.5
 21
-373.0
 31
0.0
  0
CIRCLE
  5
4DD
  8
DATA
  6
CONTINUOUS
 62
     7
 10
399.5
 20
-375.0
 30
0.0
 40
3.5
  0
LINE
  5
4DE
  8
DATA
  6
CONTINUOUS
 62
     7
 10
397.5
 20
-375.0
 30
0.0
 11
401.49999999999989
 21
-375.0
 31
0.0
  0
LINE
  5
4DF
  8
DATA
  6
CONTINUOUS
 62
     7
 10
399.5
 20
-377.0
 30
0.0
 11
399.5
 21
-373.0
 31
0.0
  0
LINE
  5
4E0
  8
DATA
  6
CONTINUOUS
 62
     7
 10
-400.0
 20
-247.59999999999999
 30
0.0
 11
-371.64999999999998
 21
-247.59999999999999
 31
0.0
  0
LINE
  5
4E1
  8
DATA
  6
CONTINUOUS
 62
     7
 10
-371.25
 20
-248.0
 30
0.0
 11
-371.25
 21
-244.0
 31
0.0
  0
LINE
  5
4E2
  8
DATA
  6
CONTINUOUS
 62
     7
 10
55.149999999999991
 20
-247.59999999999999
 30
0.0
 11
83.499999999999986
 21
-247.59999999999999
 31
0.0
  0
LINE
  5
4E3
  8
DATA
  6
CONTINUOUS
 62
     7
 10
54.75
 20
-248.0
 30
0.0
 11
54.75
 21
-244.0
 31
0.0
  0
LINE
  5
4E4
  8
DATA
  6
CONTINUOUS
 62
     7
 10
152.39999999999989
 20
-499.99999999999989
 30
0.0
 11
152.39999999999989
 21
-367.0
 31
0.0
  0
ARC
  5
4E5
  8
DATA
  6
CONTINUOUS
 62
     7
 10
446.49999999999989
 20
-404.9249999999999
 30
0.0
 40
3.5
 50
90.0
 51
270.0
  0
ARC
  5
4E6
  8
DATA
  6
CONTINUOUS
 62
     7
 10
449.5
 20
-404.9249999999999
 30
0.0
 40
3.5
 50
270.0
 51
90.0
  0
LINE
  5
4E7
  8
DATA
  6
CONTINUOUS
 62
     7
 10
446.49999999999989
 20
-401.42500000000001
 30
0.0
 11
449.5
 21
-401.42500000000001
 31
0.0
  0
LINE
  5
4E8
  8
DATA
  6
CONTINUOUS
 62
     7
 10
449.5
 20
-408.4249999999999
 30
0.0
 11
446.49999999999989
 21
-408.4249999999999
 31
0.0
  0
ARC
  5
4E9
  8
DATA
  6
CONTINUOUS
 62
     7
 10
446.49999999999989
 20
-462.07499999999987
 30
0.0
 40
3.5
 50
90.0
 51
270.0
  0
ARC
  5
4EA
  8
DATA
  6
CONTINUOUS
 62
     7
 10
449.5
 20
-462.07499999999987
 30
0.0
 40
3.5
 50
270.0
 51
90.0
  0
LINE
  5
4EB
  8
DATA
  6
CONTINUOUS
 62
     7
 10
446.49999999999989
 20
-458.57499999999987
 30
0.0
 11
449.5
 21
-458.57499999999987
 31
0.0
  0
LINE
  5
4EC
  8
DATA
  6
CONTINUOUS
 62
     7
 10
449.5
 20
-465.57499999999987
 30
0.0
 11
446.49999999999989
 21
-465.57499999999987
 31
0.0
  0
LINE
  5
4ED
  8
DATA
  6
CONTINUOUS
 62
     7
 10
145.0
 20
-485.34999999999991
 30
0.0
 11
150.0
 21
-485.34999999999991
 31
0.0
  0
LINE
  5
4EE
  8
DATA
  6
CONTINUOUS
 62
     7
 10
145.0
 20
-470.34999999999991
 30
0.0
 11
150.0
 21
-470.34999999999991
 31
0.0
  0
LINE
  5
4EF
  8
DATA
  6
CONTINUOUS
 62
     7
 10
145.0
 20
-476.19235999999989
 30
0.0
 11
150.0
 21
-476.19235999999989
 31
0.0
  0
LINE
  5
4F0
  8
DATA
  6
CONTINUOUS
 62
     7
 10
145.0
 20
-470.34999999999991
 30
0.0
 11
145.0
 21
-485.34999999999991
 31
0.0
  0
ARC
  5
4F1
  8
DATA
  6
CONTINUOUS
 62
     7
 10
-392.25
 20
294.77499999999998
 30
0.0
 40
3.5
 50
90.0
 51
270.0
  0
ARC
  5
4F2
  8
DATA
  6
CONTINUOUS
 62
     7
 10
-389.25
 20
294.77499999999998
 30
0.0
 40
3.5
 50
270.0
 51
90.0
  0
LINE
  5
4F3
  8
DATA
  6
CONTINUOUS
 62
     7
 10
-392.25
 20
298.27499999999998
 30
0.0
 11
-389.25
 21
298.27499999999998
 31
0.0
  0
LINE
  5
4F4
  8
DATA
  6
CONTINUOUS
 62
     7
 10
-389.25
 20
291.27499999999998
 30
0.0
 11
-392.25
 21
291.27499999999998
 31
0.0
  0
ARC
  5
4F5
  8
DATA
  6
CONTINUOUS
 62
     7
 10
-392.25
 20
237.625
 30
0.0
 40
3.5
 50
90.0
 51
270.0
  0
ARC
  5
4F6
  8
DATA
  6
CONTINUOUS
 62
     7
 10
-389.25
 20
237.625
 30
0.0
 40
3.5
 50
270.0
 51
90.0
  0
LINE
  5
4F7
  8
DATA
  6
CONTINUOUS
 62
     7
 10
-392.25
 20
241.125
 30
0.0
 11
-389.25
 21
241.125
 31
0.0
  0
LINE
  5
4F8
  8
DATA
  6
CONTINUOUS
 62
     7
 10
-389.25
 20
234.125
 30
0.0
 11
-392.25
 21
234.125
 31
0.0
  0
ARC
  5
4F9
  8
DATA
  6
CONTINUOUS
 62
     7
 10
72.749999999999986
 20
294.77499999999998
 30
0.0
 40
3.5
 50
90.0
 51
270.0
  0
ARC
  5
4FA
  8
DATA
  6
CONTINUOUS
 62
     7
 10
75.749999999999986
 20
294.77499999999998
 30
0.0
 40
3.5
 50
270.0
 51
90.0
  0
LINE
  5
4FB
  8
DATA
  6
CONTINUOUS
 62
     7
 10
72.749999999999986
 20
298.27499999999998
 30
0.0
 11
75.749999999999986
 21
298.27499999999998
 31
0.0
  0
LINE
  5
4FC
  8
DATA
  6
CONTINUOUS
 62
     7
 10
75.749999999999986
 20
291.27499999999998
 30
0.0
 11
72.749999999999986
 21
291.27499999999998
 31
0.0
  0
ARC
  5
4FD
  8
DATA
  6
CONTINUOUS
 62
     7
 10
72.749999999999986
 20
237.625
 30
0.0
 40
3.5
 50
90.0
 51
270.0
  0
ARC
  5
4FE
  8
DATA
  6
CONTINUOUS
 62
     7
 10
75.749999999999986
 20
237.625
 30
0.0
 40
3.5
 50
270.0
 51
90.0
  0
LINE
  5
4FF
  8
DATA
  6
CONTINUOUS
 62
     7
 10
72.749999999999986
 20
241.125
 30
0.0
 11
75.749999999999986
 21
241.125
 31
0.0
  0
LINE
  5
500
  8
DATA
  6
CONTINUOUS
 62
     7
 10
75.749999999999986
 20
234.125
 30
0.0
 11
72.749999999999986
 21
234.125
 31
0.0
  0
LINE
  5
501
  8
DATA
  6
STYLE_01
 62
     7
 10
-231.96999999999991
 20
234.69999999999999
 30
0.0
 11
-231.96999999999991
 21
219.69999999999999
 31
0.0
  0
LINE
  5
502
  8
DATA
  6
STYLE_01
 62
     7
 10
-192.52999999999989
 20
234.69999999999999
 30
0.0
 11
-231.96999999999991
 21
234.69999999999999
 31
0.0
  0
LINE
  5
503
  8
DATA
  6
STYLE_01
 62
     7
 10
-192.52999999999989
 20
219.69999999999999
 30
0.0
 11
-231.96999999999991
 21
219.69999999999999
 31
0.0
  0
LINE
  5
504
  8
DATA
  6
STYLE_01
 62
     7
 10
-230.7699999999999
 20
234.69999999999999
 30
0.0
 11
-230.7699999999999
 21
219.69999999999999
 31
0.0
  0
LINE
  5
505
  8
DATA
  6
STYLE_01
 62
     7
 10
-221.20999999999989
 20
234.69999999999999
 30
0.0
 11
-221.20999999999989
 21
219.69999999999999
 31
0.0
  0
LINE
  5
506
  8
DATA
  6
STYLE_01
 62
     7
 10
-211.64999999999989
 20
234.69999999999999
 30
0.0
 11
-211.64999999999989
 21
219.69999999999999
 31
0.0
  0
LINE
  5
507
  8
DATA
  6
STYLE_01
 62
     7
 10
-212.84999999999999
 20
234.69999999999999
 30
0.0
 11
-212.84999999999999
 21
219.69999999999999
 31
0.0
  0
LINE
  5
508
  8
DATA
  6
STYLE_01
 62
     7
 10
-202.08999999999989
 20
234.69999999999999
 30
0.0
 11
-202.08999999999989
 21
219.69999999999999
 31
0.0
  0
LINE
  5
509
  8
DATA
  6
STYLE_01
 62
     7
 10
-203.28989999999999
 20
234.69999999999999
 30
0.0
 11
-203.28989999999999
 21
219.69999999999999
 31
0.0
  0
LINE
  5
50A
  8
DATA
  6
STYLE_01
 62
     7
 10
-192.52999999999989
 20
234.69999999999999
 30
0.0
 11
-192.52999999999989
 21
219.69999999999999
 31
0.0
  0
LINE
  5
50B
  8
DATA
  6
STYLE_01
 62
     7
 10
-193.72999999999999
 20
234.69999999999999
 30
0.0
 11
-193.72999999999999
 21
219.69999999999999
 31
0.0
  0
CIRCLE
  5
50C
  8
DATA
  6
STYLE_01
 62
     7
 10
-226.58999999999989
 20
227.19999999999999
 30
0.0
 40
3.5
  0
LINE
  5
50D
  8
DATA
  6
STYLE_01
 62
     7
 10
-226.58999999999989
 20
223.69999999999999
 30
0.0
 11
-226.58999999999989
 21
230.69999999999999
 31
0.0
  0
LINE
  5
50E
  8
DATA
  6
STYLE_01
 62
     7
 10
-224.58999999999989
 20
227.19999999999999
 30
0.0
 11
-228.58999999999989
 21
227.19999999999999
 31
0.0
  0
CIRCLE
  5
50F
  8
DATA
  6
STYLE_01
 62
     7
 10
-217.02999999999989
 20
227.19999999999999
 30
0.0
 40
3.5
  0
LINE
  5
510
  8
DATA
  6
STYLE_01
 62
     7
 10
-217.02999999999989
 20
223.69999999999999
 30
0.0
 11
-217.02999999999989
 21
230.69999999999999
 31
0.0
  0
LINE
  5
511
  8
DATA
  6
STYLE_01
 62
     7
 10
-215.02999999999989
 20
227.19999999999999
 30
0.0
 11
-219.02999999999989
 21
227.19999999999999
 31
0.0
  0
CIRCLE
  5
512
  8
DATA
  6
STYLE_01
 62
     7
 10
-207.47
 20
227.19999999999999
 30
0.0
 40
3.5
  0
LINE
  5
513
  8
DATA
  6
STYLE_01
 62
     7
 10
-207.47
 20
223.69999999999999
 30
0.0
 11
-207.47
 21
230.69999999999999
 31
0.0
  0
LINE
  5
514
  8
DATA
  6
STYLE_01
 62
     7
 10
-205.47
 20
227.19999999999999
 30
0.0
 11
-209.47
 21
227.19999999999999
 31
0.0
  0
CIRCLE
  5
515
  8
DATA
  6
STYLE_01
 62
     7
 10
-197.90989999999991
 20
227.19999999999999
 30
0.0
 40
3.5
  0
LINE
  5
516
  8
DATA
  6
STYLE_01
 62
     7
 10
-197.90989999999991
 20
223.69999999999999
 30
0.0
 11
-197.90989999999991
 21
230.69999999999999
 31
0.0
  0
LINE
  5
517
  8
DATA
  6
STYLE_01
 62
     7
 10
-195.90989999999991
 20
227.19999999999999
 30
0.0
 11
-199.90989999999999
 21
227.19999999999999
 31
0.0
  0
LINE
  5
518
  8
DATA
  6
STYLE_01
 62
     7
 10
-222.40989999999999
 20
234.69999999999999
 30
0.0
 11
-222.40989999999999
 21
219.69999999999999
 31
0.0
  0
CIRCLE
  5
519
  8
DATA
  6
STYLE_01
 62
     7
 10
-184.30000000000001
 20
227.19999999999999
 30
0.0
 40
4.3301270189222318
  0
TEXT
  5
51A
  8
DATA
 62
     7
 10
-278.0
 20
-479.65999999999968
 30
0.0
 40
8.1442057291666661
  1
CE2000TX
 41
0.7
 11
-278.0
 21
-471.51579427083311
 31
0.0
 73
     3
  0
LINE
  5
51B
  8
DATA
  6
STYLE_01
 62
     7
 10
-189.2999999999999
 20
227.19999999999999
 30
0.0
 11
-186.7999999999999
 21
222.8698729810778
 31
0.0
  0
LINE
  5
51C
  8
DATA
  6
STYLE_01
 62
     7
 10
-186.80000000000001
 20
231.53012701892209
 30
0.0
 11
-189.2999999999999
 21
227.19999999999999
 31
0.0
  0
LINE
  5
51D
  8
DATA
  6
STYLE_01
 62
     7
 10
-181.7999999999999
 20
231.53012701892209
 30
0.0
 11
-186.80000000000001
 21
231.53012701892209
 31
0.0
  0
LINE
  5
51E
  8
DATA
  6
STYLE_01
 62
     7
 10
-179.2999999999999
 20
227.19999999999999
 30
0.0
 11
-181.7999999999999
 21
231.53012701892209
 31
0.0
  0
LINE
  5
51F
  8
DATA
  6
STYLE_01
 62
     7
 10
-181.80000000000001
 20
222.8698729810778
 30
0.0
 11
-179.2999999999999
 21
227.19999999999999
 31
0.0
  0
LINE
  5
520
  8
DATA
  6
STYLE_01
 62
     7
 10
-186.7999999999999
 20
222.8698729810778
 30
0.0
 11
-181.80000000000001
 21
222.8698729810778
 31
0.0
  0
CIRCLE
  5
521
  8
DATA
  6
STYLE_01
 62
     7
 10
-184.30000000000001
 20
227.19999999999999
 30
0.0
 40
4.3301270189222318
  0
POLYLINE
  5
522
  8
DATA
  6
CONTINUOUS
 62
     7
 66
     1
 10
0.0
 20
0.0
 30
0.0
 70
     1
  0
VERTEX
  5
60C
  8
DATA
  6
CONTINUOUS
 62
     7
 10
-247.25
 20
248.19999999999999
 30
0.0
  0
VERTEX
  5
60D
  8
DATA
  6
CONTINUOUS
 62
     7
 10
-177.24999999999989
 20
248.19999999999999
 30
0.0
  0
VERTEX
  5
60E
  8
DATA
  6
CONTINUOUS
 62
     7
 10
-177.24999999999989
 20
206.19999999999999
 30
0.0
  0
VERTEX
  5
60F
  8
DATA
  6
CONTINUOUS
 62
     7
 10
-247.25
 20
206.19999999999999
 30
0.0
  0
SEQEND
  5
610
  8
DATA
  6
CONTINUOUS
 62
     7
  0
CIRCLE
  5
529
  8
DATA
  6
CONTINUOUS
 62
     7
 10
-184.30000000000001
 20
227.19999999999999
 30
0.0
 40
4.0000000000000178
  0
LINE
  5
52A
  8
DATA
  6
CONTINUOUS
 62
     7
 10
-184.30000000000001
 20
224.69999999999999
 30
0.0
 11
-184.30000000000001
 21
229.69999999999999
 31
0.0
  0
LINE
  5
52B
  8
DATA
  6
CONTINUOUS
 62
     7
 10
-181.80000000000001
 20
227.19999999999999
 30
0.0
 11
-186.80000000000001
 21
227.19999999999999
 31
0.0
  0
CIRCLE
  5
52C
  8
DATA
  6
STYLE_01
 62
     7
 10
-240.30000000000001
 20
227.19999999999999
 30
0.0
 40
4.3301270189222318
  0
LINE
  5
52D
  8
DATA
  6
STYLE_01
 62
     7
 10
-245.2999999999999
 20
227.19999999999999
 30
0.0
 11
-242.7999999999999
 21
222.8698729810778
 31
0.0
  0
LINE
  5
52E
  8
DATA
  6
STYLE_01
 62
     7
 10
-242.80000000000001
 20
231.53012701892209
 30
0.0
 11
-245.2999999999999
 21
227.19999999999999
 31
0.0
  0
LINE
  5
52F
  8
DATA
  6
STYLE_01
 62
     7
 10
-237.80000000000001
 20
231.53012701892209
 30
0.0
 11
-242.80000000000001
 21
231.53012701892209
 31
0.0
  0
LINE
  5
530
  8
DATA
  6
STYLE_01
 62
     7
 10
-235.30000000000001
 20
227.19999999999999
 30
0.0
 11
-237.80000000000001
 21
231.53012701892209
 31
0.0
  0
LINE
  5
531
  8
DATA
  6
STYLE_01
 62
     7
 10
-237.80000000000001
 20
222.8698729810778
 30
0.0
 11
-235.30000000000001
 21
227.19999999999999
 31
0.0
  0
LINE
  5
532
  8
DATA
  6
STYLE_01
 62
     7
 10
-242.7999999999999
 20
222.8698729810778
 30
0.0
 11
-237.80000000000001
 21
222.8698729810778
 31
0.0
  0
CIRCLE
  5
533
  8
DATA
  6
STYLE_01
 62
     7
 10
-240.30000000000001
 20
227.19999999999999
 30
0.0
 40
4.3301270189222318
  0
CIRCLE
  5
534
  8
DATA
  6
CONTINUOUS
 62
     7
 10
-240.30000000000001
 20
227.19999999999999
 30
0.0
 40
4.0000000000000178
  0
LINE
  5
535
  8
DATA
  6
CONTINUOUS
 62
     7
 10
-240.30000000000001
 20
224.69999999999999
 30
0.0
 11
-240.30000000000001
 21
229.69999999999999
 31
0.0
  0
LINE
  5
536
  8
DATA
  6
CONTINUOUS
 62
     7
 10
-237.80000000000001
 20
227.19999999999999
 30
0.0
 11
-242.80000000000001
 21
227.19999999999999
 31
0.0
  0
ENDSEC
  0
EOF
